Song name
# A B C D E F G H I J K L M N O P Q R S T U V W X Y Z

Anberlin - Breaking tab

-------------------------------------------------------------------------------
			     BREAKING - Anberlin
-------------------------------------------------------------------------------

The other tabs are just too horrible… i made an attempt at a better one. it’s not 
but i hope u peeps like it :)

Tabbed by: Mitch Robertson
Email: ju5t2good2btru@hotmail.com

Tuning: Normal


Intro/Verse

Guitar 1
e|---------------------------------------------------------------|
B|---------------------------------------------------------------|
G|-----4-------4-------4-------4-------4-------4-------4-------4-|
D|-----2-------2-------2-------2-------2-------2-------2-------2-|
A|-4-4-----4-4-----0-0-----0-0-----2-2-----2-2-----2-2-----2-2---|
E|---------------------------------------------------------------|

e|---------------------------------------------------------------|
B|---------------------------------------------------------------|
G|-----4-------4-------4-------4-------4-------4-------4-------4-|
D|-----2-------2-------2-------2-------2-------2-------4-------4-|
A|-4-4-----4-4-----0-0-----0-0-----2-2-----2-2-----2-2-----2-2---|
E|---------------------------------------------------------------| x3

Guitar 2  (comes in after guitar 1 plays four times)
e|--------------------------------------------------------------|
B|--------------------------------------------------------------|
G|---9-8-------------9-8------------9-8-------------9-8---------|
D|-------11--------------9--------------11--------------11------|
A|--------------------------------------------------------------|
E|--------------------------------------------------------------| x2

then

Guitars 1 and 2
e|------|
B|------|
G|-9999-|
D|-9999-|
A|-7777-|
E|------|


Bridge

Guitars 1 and 2
e|-------------------------------------------------------------------------|
B|-------------------------------------------------------------------------|
G|---------------------------------6-6-6-6-4-4-4-4-4-4-4-4-4-4-4-4-9-9-9-9-|
D|-7-7-7-7-7-7-7-7-7-7-7-7-7-7-7-7-6-6-6-6-4-4-4-4-4-4-4-4-4-4-4-4-9-9-9-9-|
A|-7-7-7-7-7-7-7-7-7-7-7-7-7-7-7-7-4-4-4-4-2-2-2-2-2-2-2-2-2-2-2-2-7-7-7-7-|
E|-5-5-5-5-5-5-5-5-5-5-5-5-5-5-5-5-----------------------------------------|

e|-------------------------------------------------------------------------|
B|-------------------------------------------------------------------------|
G|---------------------------------6-6-6-6-4-4-4-4-4-4-4-4-----------------|
D|-7-7-7-7-7-7-7-7-7-7-7-7-7-7-7-7-6-6-6-6-4-4-4-4-4-4-4-4-----------------|
A|-7-7-7-7-7-7-7-7-7-7-7-7—7-7-7-7-4-4-4-4-2-2-2-2-2-2-2-2-----------------|
E|-5-5-5-5-5-5-5-5-5-5-5-5-5-5-5-5-----------------------------------------|


Chorus

Guitars 1 and 2
e|-----------------------------------------------------------------|
B|-----------------------------------------------------------------|
G|-9-9-9-9-9-9-9-9-----------------4-4-4-4-4-4-4-4-6-6-6-6-6-6-6-6-|
D|-9-9-9-9-9-9-9-9-7-7-7-7-7-7-7-7-4-4-4-4-4-4-4-4-6-6-6-6-6-6-6-6-|
A|-7-7-7-7-7-7-7-7-7-7-7-7-7-7-7-7-2-2-2-2-2-2-2-2-4-4-4-4-4-4-4-4-|
E|-----------------5-5-5-5-5-5-5-5---------------------------------|

e|-----------------------------------------------------------------|
B|-----------------------------------------------------------------|
G|-9-9-9-9-9-9-9-9-----------------4-4-4-4-4-4-4-4-4-4-4-4---------|
D|-9-9-9-9-9-9-9-9-7-7-7-7-7-7-7-7-4-4-4-4-4-4-4-4-4-4-4-4---------|
A|-7-7-7-7-7-7-7-7-7-7-7-7-7-7-7-7-2-2-2-2-2-2-2-2-2-2-2-2-6-7-4-6-|
E|-----------------5-5-5-5-5-5-5-5---------------------------------|

e|-----------------------------------------------------------------|
B|-----------------------------------------------------------------|
G|-9-9-9-9-9-9-9-9-----------------4-4-4-4-4-4-4-4-6-6-6-6-6-6-6-6-|
D|-9-9-9-9-9-9-9-9-7-7-7-7-7-7-7-7-4-4-4-4-4-4-4-4-6-6-6-6-6-6-6-6-|
A|-7-7-7-7-7-7-7-7-7-7-7-7-7-7-7-7-2-2-2-2-2-2-2-2-4-4-4-4-4-4-4-4-|
E|-----------------5-5-5-5-5-5-5-5---------------------------------|

e|-----------------------------------------------------------------|
B|-----------------------------------------------------------------|
G|-9-9-9-9-9-9-9-9-----------------4-4-4-4-4-4-4-4-4-4-4-4-4-4-4-4-|
D|-9-9-9-9-9-9-9-9-7-7-7-7-7-7-7-7-4-4-4-4-4-4-4-4-4-4-4-4-4-4-4-4-|
A|-7-7-7-7-7-7-7-7-7-7-7-7-7-7-7-7-2-2-2-2-2-2-2-2-2-2-2-2-2-2-2-2-|
E|-----------------5-5-5-5-5-5-5-5---------------------------------| x2


Verse 2

Guitar 1
e|---------------------------------------------------------------|
B|---------------------------------------------------------------|
G|-----4-------4-------4-------4-------4-------4-------4-------4-|
D|-----2-------2-------2-------2-------2-------2-------2-------2-|
A|-4-4-----4-4-----0-0-----0-0-----2-2-----2-2-----2-2-----2-2---|
E|---------------------------------------------------------------|

e|---------------------------------------------------------------|
B|---------------------------------------------------------------|
G|-----4-------4-------4-------4-------4-------4-------4-------4-|
D|-----2-------2-------2-------2-------2-------2-------4-------4-|
A|-4-4-----4-4-----0-0-----0-0-----2-2-----2-2-----2-2-----2-2---|
E|---------------------------------------------------------------| x2


Guitar 2
e|-----------------------------------------------------------------|
B|-----------------------------------------------------------------|
G|-6-6-6-6-6-6-6-6-----------------4-4-4-4-4-4-4-4-6-6-6-6-6-6-6-6-|
D|-6-6-6-6-6-6-6-6-7-7-7-7-7-7-7-7-4-4-4-4-4-4-4-4-6-6-6-6-6-6-6-6-|
A|-4-4-4-4-4-4-4-4-7-7-7-7-7-7-7-7-2-2-2-2-2-2-2-2-4-4-4-4-4-4-4-4-|
E|-----------------5-5-5-5-5-5-5-5---------------------------------| x4
P.M. . . . . . . . . . . . . . . . . . . . . . . . . . . . . . . .
   ^ don’t play  ^
     the 1st time

then

Guitars 1 and 2
e|------|
B|------|
G|-9999-|
D|-9999-|
A|-7777-|
E|------|


Bridge

Guitars 1 and 2
e|-------------------------------------------------------------------------|
B|-------------------------------------------------------------------------|
G|---------------------------------6-6-6-6-4-4-4-4-4-4-4-4-4-4-4-4-9-9-9-9-|
D|-7-7-7-7-7-7-7-7-7-7-7-7-7-7-7-7-6-6-6-6-4-4-4-4-4-4-4-4-4-4-4-4-9-9-9-9-|
A|-7-7-7-7-7-7-7-7-7-7-7-7-7-7-7-7-4-4-4-4-2-2-2-2-2-2-2-2-2-2-2-2-7-7-7-7-|
E|-5-5-5-5-5-5-5-5-5-5-5-5-5-5-5-5-----------------------------------------|

e|-------------------------------------------------------------------------|
B|-------------------------------------------------------------------------|
G|---------------------------------6-6-6-6-4-4-4-4-4-4-4-4-----------------|
D|-7-7-7-7-7-7-7-7-7-7-7-7-7-7-7-7-6-6-6-6-4-4-4-4-4-4-4-4---------4h6p4h6-|
A|-7-7-7-7-7-7-7-7-7-7-7-7—7-7-7-7-4-4-4-4-2-2-2-2-2-2-2-2-4h6p4h6---------|
E|-5-5-5-5-5-5-5-5-5-5-5-5-5-5-5-5-----------------------------------------|


Chorus

Guitars 1 and 2
e|-----------------------------------------------------------------|
B|-----------------------------------------------------------------|
G|-9-9-9-9-9-9-9-9-----------------4-4-4-4-4-4-4-4-6-6-6-6-6-6-6-6-|
D|-9-9-9-9-9-9-9-9-7-7-7-7-7-7-7-7-4-4-4-4-4-4-4-4-6-6-6-6-6-6-6-6-|
A|-7-7-7-7-7-7-7-7-7-7-7-7-7-7-7-7-2-2-2-2-2-2-2-2-4-4-4-4-4-4-4-4-|
E|-----------------5-5-5-5-5-5-5-5---------------------------------|

e|-----------------------------------------------------------------|
B|-----------------------------------------------------------------|
G|-9-9-9-9-9-9-9-9-----------------4-4-4-4-4-4-4-4-4-4-4-4---------|
D|-9-9-9-9-9-9-9-9-7-7-7-7-7-7-7-7-4-4-4-4-4-4-4-4-4-4-4-4---------|
A|-7-7-7-7-7-7-7-7-7-7-7-7-7-7-7-7-2-2-2-2-2-2-2-2-2-2-2-2-6-7-4-6-|
E|-----------------5-5-5-5-5-5-5-5---------------------------------|

e|-----------------------------------------------------------------|
B|-----------------------------------------------------------------|
G|-9-9-9-9-9-9-9-9-----------------4-4-4-4-4-4-4-4-6-6-6-6-6-6-6-6-|
D|-9-9-9-9-9-9-9-9-7-7-7-7-7-7-7-7-4-4-4-4-4-4-4-4-6-6-6-6-6-6-6-6-|
A|-7-7-7-7-7-7-7-7-7-7-7-7-7-7-7-7-2-2-2-2-2-2-2-2-4-4-4-4-4-4-4-4-|
E|-----------------5-5-5-5-5-5-5-5---------------------------------|

e|-----------------------------------------------------------------|
B|-----------------------------------------------------------------|
G|-9-9-9-9-9-9-9-9-----------------4-4-4-4-4-4-4-4-4-4-4-4---------|
D|-9-9-9-9-9-9-9-9-7-7-7-7-7-7-7-7-4-4-4-4-4-4-4-4-4-4-4-4-2-------|
A|-7-7-7-7-7-7-7-7-7-7-7-7-7-7-7-7-2-2-2-2-2-2-2-2-2-2-2-2-2-------|
E|-----------------5-5-5-5-5-5-5-5-------------------------0-------|

Interlude

Guitar 1
e|-----------------------------------------------------------------|
B|-----------------------------------------------------------------|
G|-9-9-9-9-9-9-9-9-9-9-9-9-9-9-9-9---------------------------------|
D|-9-9-9-9-9-9-9-9-9-9-9-9-9-9-9-9-7-7-7-7-7-7-7-7-7-7-7-7-7-7-7-7-|
A|-7-7-7-7-7-7-7-7-7-7-7-7-7-7-7-7-7-7-7-7-7-7-7-7-7-7-7-7-7-7-7-7-|
E|---------------------------------5-5-5-5-5-5-5-5-5-5-5-5-5-5-5-5-|
P.M. . . . . . . . . . . . . . . . . . . . . . . . . . . . . . . .

e|-----------------------------------------------------------------|
B|-----------------------------------------------------------------|
G|-4-4-4-4-4-4-4-4-4-4-4-4-4-4-4-4-6-6-6-6-6-6-6-6-6-6-6-6-6-6-6-6-|
D|-4-4-4-4-4-4-4-4-4-4-4-4-4-4-4-4-6-6-6-6-6-6-6-6-6-6-6-6-6-6-6-6-|
A|-2-2-2-2-2-2-2-2-2-2-2-2-2-2-2-2-4-4-4-4-4-4-4-4-4-4-4-4-4-4-4-4-|
E|-----------------------------------------------------------------| x2
P.M. . . . . . . . . . . . . . . . . . . . . . . . . . . . . . . .

Guitar 2
e|-9-9-9-9-9-9-91112121214141414\--5-5-5-5-5-5-5-5-5-5-5-5-5-5-7-9-|
B|-----------------------------------------------------------------|
G|-----------------------------------------------------------------|
D|-----------------------------------------------------------------|
A|-----------------------------------------------------------------|
E|-----------------------------------------------------------------|

e|-7-7-7-7-7-7-7-7-7-7-7-7-7-7-7-714141414141414141414141414141414-|
B|-----------------------------------------------------------------|
G|-----------------------------------------------------------------|
D|-----------------------------------------------------------------|
A|-----------------------------------------------------------------|
E|-----------------------------------------------------------------| x2


Piano Bit

e|-----------------------------------------------------------------|
B|-----------------------------------------------------------------|
G|-4~--------------------------------------------------------------|
D|---------------2~-----------4h6-4~---------------6~--------------|
A|-----------------------------------------------------------------|
E|-----------------------------------------------------------------|

e|-----------------------------------------------------------------|
B|-----------------------------------------------------------------|
G|-4~--------------------------------------------------------------|
D|---------------2~-----------4h6-4~-------------------------------|
A|-----------------------------------------------------------------|
E|-----------------------------------------------------------------|


Chorus

Guitars 1 and 2
e|-----------------------------------------------------------------|
B|-----------------------------------------------------------------|
G|-9-9-9-9-9-9-9-9-----------------4-4-4-4-4-4-4-4-6-6-6-6-6-6-6-6-|
D|-9-9-9-9-9-9-9-9-7-7-7-7-7-7-7-7-4-4-4-4-4-4-4-4-6-6-6-6-6-6-6-6-|
A|-7-7-7-7-7-7-7-7-7-7-7-7-7-7-7-7-2-2-2-2-2-2-2-2-4-4-4-4-4-4-4-4-|
E|-----------------5-5-5-5-5-5-5-5---------------------------------|

e|-----------------------------------------------------------------|
B|-----------------------------------------------------------------|
G|-9-9-9-9-9-9-9-9-----------------4-4-4-4-4-4-4-4-4-4-4-4---------|
D|-9-9-9-9-9-9-9-9-7-7-7-7-7-7-7-7-4-4-4-4-4-4-4-4-4-4-4-4---------|
A|-7-7-7-7-7-7-7-7-7-7-7-7-7-7-7-7-2-2-2-2-2-2-2-2-2-2-2-2-6-7-4-6-|
E|-----------------5-5-5-5-5-5-5-5---------------------------------|

e|-----------------------------------------------------------------|
B|-----------------------------------------------------------------|
G|-9-9-9-9-9-9-9-9-----------------4-4-4-4-4-4-4-4-6-6-6-6-6-6-6-6-|
D|-9-9-9-9-9-9-9-9-7-7-7-7-7-7-7-7-4-4-4-4-4-4-4-4-6-6-6-6-6-6-6-6-|
A|-7-7-7-7-7-7-7-7-7-7-7-7-7-7-7-7-2-2-2-2-2-2-2-2-4-4-4-4-4-4-4-4-|
E|-----------------5-5-5-5-5-5-5-5---------------------------------|

e|-----------------------------------------------------------------|
B|-----------------------------------------------------------------|
G|-9-9-9-9-9-9-9-9-----------------4-4-4-4-4-4-4-4-4-4-4-4-4-4-4-4-|
D|-9-9-9-9-9-9-9-9-7-7-7-7-7-7-7-7-4-4-4-4-4-4-4-4-4-4-4-4-4-4-4-4-|
A|-7-7-7-7-7-7-7-7-7-7-7-7-7-7-7-7-2-2-2-2-2-2-2-2-2-2-2-2-2-2-2-2-|
E|-----------------5-5-5-5-5-5-5-5---------------------------------| x2

e|-----------------------------------------------------------------|
B|-----------------------------------------------------------------|
G|-9~--------------------------------------------------------------|
D|-9~--------------------------------------------------------------|
A|-7~--------------------------------------------------------------|
E|-----------------------------------------------------------------|

| /    slide up
| \    slide down
| h    hammer-on
| p    pull-off
| ~    hold note
| +    harmonic
| x    mute note
| P.M. palm mute
===============================================================================
Tap to rate this tab
# A B C D E F G H I J K L M N O P Q R S T U V W X Y Z