Song name
# A B C D E F G H I J K L M N O P Q R S T U V W X Y Z

Anberlin - Dismantle Repair tab

-------------------------------------------------------------------------------
			                          Dismantle. Repair. - Anberlin
-------------------------------------------------------------------------------
Tabbed by: SorryImAwesome.
Email: ...sorryimawesome@hotmail.com

Tuning: Drop C (C,G,C,F,A,D)

Guitars:
1 - Lead
2 - Rhythm

Intro/Verse 4x:
Guitar 1:
D|-----------|        |-------------|
A|-----------|        |-------------|
F|-------0~--|        |--------0~---|
C|-----5~--5~|        |-----10---10~|
G|---3~------|        |---7~--------|
C|-3~--------|2x, then|-7~----------|2x

Chorus 1:
Guitar 1 and 2:
D|-------------------------------------------------------|
A|-------------------------------------------------------|
F|-------------------------------------------------------|
C|-3-----5(5x)-3-----------0-----5(5x)-0-----------2-----|
G|-3(4x)-------3(3x)-5(4x)-0(4x)-------0(3x)-5(2x)-2(2x)-|
C|-3-----------3-----------0-----------0-----------2-----|

D|--------------------------------------------------------|
A|--------------------------------------------------------|
F|--------------------------------------------------------|
C|-3~3~3~-5(5x)-3-----------0-----5(4x)-----5-----5-----5~|
G|-3~3~3~-------3(3x)-5(4x)-0(4x)---------3-----3-----3-3~|
C|-3~3~3~-------3-----------0-----------2-----2-----2---3~|

Continue with the Verse.

Chorus 2:
D|-------------------------------------------------------|
A|-------------------------------------------------------|
F|-------------------------------------------------------|
C|-3-----5(5x)-3-----------0-----5(5x)-0-----------2-----|
G|-3(4x)-------3(3x)-5(4x)-0(4x)-------0(3x)-5(2x)-2(2x)-|
C|-3-----------3-----------0-----------0-----------2-----|2x

Chorus 3:
Guitar 1:
D|----------------------------------|
A|------13~------13~------13-8h10p8-|
F|-9h10-----9h10-----9h10-----------|
C|----------------------------------|
G|----------------------------------|
C|----------------------------------|8x

Guitar 2:
D|-----------------------------------|
A|-----------------------------------|
F|-3------5--------------------------|
C|-3(16x)-5(16x)-0------2-----3------|
G|-1------3------0(12x)-2(4x)-3(16x)-|
C|---------------0------2-----3------|2x

Continue with the Verse.  On the second round add Guitar 2:
D|---------------|
A|---------------|
F|---------------|
C|-5------10-----|
G|-3(16x)-7(16x)-|
C|-3------7------|2x
PM:*      *

Chorus 3 (there's a slight variation in this one, so I'll tab it out):
Guitar 1:
D|----------------------------------|
A|------13~------13~------13-8h10p8-|
F|-9h10-----9h10-----9h10-----------|
C|----------------------------------|
G|----------------------------------|
C|----------------------------------|8x

Guitar 2:
D|------------------------------------------------|
A|------------------------------------------------|
F|-3------5---------------------------------------|
C|-3(16x)-5(16x)-0------2-----3-----3p2---2h3p2---|
G|-1------3------0(12x)-2(4x)-3(8x)-----3-------3-|
C|---------------0------2-----3-------------------|

D|-----------------------------------|
A|-----------------------------------|
F|-3------5--------------------------|
C|-3(16x)-5(16x)-0------2-----3------|
G|-1------3------0(12x)-2(4x)-3(16x)-|
C|---------------0------2-----3------|

Bridge:
Guitar 1 and 2:
D|--------------------------------------------------------------------|
A|--------------------------------------------------------------------|
F|--------------------------------------------------------------------|
C|[----10]-------10---------10-------10-------------10-------10-------|
G|[--8---]4x---8----8----10-------10-------10----12-------12-------12-|
C|[8-----]---8--------10-------10-------10----12-------12-------12----|4x

Chorus 1
**PAUSE**
Chorus 3 (the one with the slight variation)
While playing Chorus 3, another guitar is added:
D|-------13~-------13~-------13-8h10p8-
A|-10h11-----10h11-----10h11-----------|
F|-------------------------------------|
C|-------------------------------------|
G|-------------------------------------|
C|-------------------------------------|8x

Fin.
************************************

| /   slide up
| \   slide down
| h   hammer-on
| p   pull-off
| ~   vibrato
| +   harmonic
| x   Mute note
| b   Bend
| pb  Pre-bend
| br  Bend release
| pbr Pre-bend release
| brb Bend release bend

************************************
Tap to rate this tab
# A B C D E F G H I J K L M N O P Q R S T U V W X Y Z