Song name
# A B C D E F G H I J K L M N O P Q R S T U V W X Y Z

Anberlin - Mother Acoustic tab

-------------------------------------------------------------------------------
			     Mother (acoustic) - Anberlin
-------------------------------------------------------------------------------
Tabbed by:rokkstar9407
Email:italianmonkey94@yahoo.com
This was my first tab. Hope you like it. Email me if there's anything wrong

Tuning:Standard
Order: Intro
       Verse 1 6x
       Chorus
       Verse 2 4x
       Solo
       Chorus
       Outro

  Intro/ Verse 1&2
e|-----------------------------------------------------------------------|
B|-----3------------------------------3----------------------------------|
G|---2--------------3--------5------2--------------3--------5------------|
D|-0--------------0--------5------0--------------0--------5--------------|
A|--------------1--------3---------------------1--------3----------------|
E|-----------------------------------------------------------------------|
About near the end of the 1st verse all the way to the end of the song, it sounds like a 
guitar comes in and plays an octave up, but I'm not sure.

  Chorus
e|----------------------------------------------------------|
B|-------------------------------3------------3-------------|
G|-----3------------5----------2------------2----------5----| Repeat 3x
D|---0------------5----------0------------0----------5------|
A|-1------------3----------------------------------3--------|
E|----------------------------------------------------------|

e|-----------------------|
B|-----------------------|
G|-----3------------5----|
D|---0------------5------|
A|-1------------3--------|
E|-----------------------|

 Solo. It sounds like the solo is in octaves until the last part, but I'm just tabbing 
main part. Backing Guitar plays Intro 2x during solo.
e|----------------|----------------|-------------3--|-5h6p5-3-----3---------|
B|-3--1-----------|-3--1--------1--|-3--3--6--3-----|---------6-----3-------|
G|-------3--2--3--|-------3--2-----|----------------|-----------------------|
D|----------------|----------------|----------------|-----------------------|
A|----------------|----------------|----------------|-----------------------|
E|----------------|----------------|----------------|-----------------------|

Outro
e|-----------------------------------------------------------------------|
B|-----3------------------------------3----------------------------------|
G|---2--------------3--------5------2--------------3--------5------------|
D|-0--------------0--------5------0--------------0--------5--------------|
A|--------------1--------3---------------------1--------3----------------|
E|-----------------------------------------------------------------------|

e|-----------------------------------------|
B|-----3--------------------------3--------|
G|---2--------------3--------5----2--------|
D|-0--------------0--------5------0--------|
A|--------------1--------3-----------------|
E|-----------------------------------------|


************************************

| h   hammer-on
| p   pull-off

************************************
Tap to rate this tab
 
# A B C D E F G H I J K L M N O P Q R S T U V W X Y Z