Song name
# A B C D E F G H I J K L M N O P Q R S T U V W X Y Z

Anberlin - Naive Orleans Acoustic chords

Highlighted       Show chord diagrams
-------------------------------------------------------------------------------
			     Naive Orleans (Acoustic)- Anberlin
-------------------------------------------------------------------------------
Tabbed by: jamuel24
Email: jam_tecus12@hotmail.com

Tuning: Guitar 1: Standard, Capo 6
	  Guitar 2: Standard, no capo
This is probably not exactly how they play it, but I think
this works. As always, comments/corrections are appreciated.

G (320033)
C (x32030)
Em (022000)
D (xx0232)

Intro:
Guitar 1 (Capo 6)
e|------3-3-3-3-3-3-3-3------------------------------------------------------|
B|--3----3---3---3---3----(etc...)-------------------------------------------|
G|---0-----0---0---0---0-----------------------------------------------------|
D|----0----------------------------------------------------------------------|
A|---------------------------------------------------------------------------|
E|---------------------------------------------------------------------------|

Guitar 2 (No capo, credit to run5home for this intro tab)
e----------------------------------------|
B----------4---------------------1---2---|
G----------------------5-----------1-----|
D------6-----------6---------------------|
A----4---4-------3---3-------------------|
E-----------------------------2----------|

Chorus: (Guitar 1) 
        C                  D             Em      G
And I finally found that life goes on without you
         C                      D           Em   G
And my world still turns when you're not around
--Then play C until the verse

Guitar 2: Power chords: F# G# Bb C#  Play F# until verse

Verse 2:
G                         G (staccato)
Is this the way you want it?
Em                  C      G
Is this the way it has to be?
G                    G (staccato)
Sitting here beside you
Em	                      C
When my heart's lost in New Orleans
G                G-Em           C
Dreams come clever Hearts now severed
G                 G-Em               C
Difference of forever And I am lost there

Chorus:
         C                 D             Em    G 
And I finally found that life goes on without you
         C                 D             Em    G   
And my world still turns when you're not around   (2x)
Em-D-C               Em-D-C    (Guitar 2: Bb-G#-F#)
And I finally found that all
G	                      C
Your actions write the melodies To the songs that we sing
G	                       C
Your actions write the melodies To the songs that we sing
  Em                          G-G-C-G-D G
And you just sing along out loud, yea

Instrumental: G C
G                        C
Come and go now as you please Your actions write the 
    G	                       C
Melodies To those songs that we sing
And you just sing
Guitar 1 solo:
e----------------------------------------|
B---3-333-333-333------------------------|
G---0h222p000h22b------------------------|
D----------------------------------------|
A----------------------------------------|
E----------------------------------------|

Same stuff for these parts as before

And I finally found that life goes on without you
And the world still turns when you're not around
And I finally found that life goes on without you
And the world still turns when you're not around
And I finally found that all

Your actions write the melodies
To the songs that we sing
Your actions write the melodies
To the songs that we sing
And you just sing along out loud

Strum G at the end, finish on C
Tap to rate this tab
 
# A B C D E F G H I J K L M N O P Q R S T U V W X Y Z