Song name
# A B C D E F G H I J K L M N O P Q R S T U V W X Y Z

Anberlin - Unwinding Cable Car tab

"The Unwinding Cable Car"

=======================================================================
Tab By:Acoustic123
Standard tuning
E A D G B e

Intro
Guitar 11 
e]---------0-------]
B]------4-----4----]
G]---6------------6]
D]-----------------]
A]-----------------]
E]-----------------]

Guitar 1
e]------------------------------------------------------------]
B]-----------5h4--------------------------0----5h4-----5h4----]
G]---------------6p4-------------6-----------------6p4-----6p4]
D]---------6------------------4---------2---------------------]
A]------4------------------2---------0------------------------]
E]------------------------------------------------------------]

Intro 2
Guitar 11
e]---------0-----0-------0--]2x
B]---------0-----0-------2--]
G]---------6-----4-------2--]
D]---------6-----4-------2--]
A]---------4-----2-------0--]
E]---------0-----0-------0--]

Guitar 1
e]---------------------------------------]2x
B]---------5h4---------------------------]
G]-------------6p4-----------------------]
D]-------------------2--4--6---2--4--6---]
A]--------------------------------------4]
E]---------------------------------------]

Verse 1         "emotive unstable you're like an unwinding cable car"
Guitar 11
e]---------0-----0-------0--]
B]---------0-----0-------2--]
G]---------6-----4-------2--]
D]---------6-----4-------2--]
A]---------4-----2-------0--]
E]---------0-----0-------0--]

Guitar 1
e]-----------------------]3x   e]-------------------------]
B]-----------------------]     B]-------------------------]
G]-----------------------]     G]-------------------------]
D]---2--4--6---2--4--6---]     D]---2--4--6---------------]
A]----------------------4]     A]-----------7-7-9--7--6--4]
E]-----------------------]     E]-------------------------]


Chorus          "this is the correlation of salvation and love"Guitar 11
e]---------0-----0-------0--]
B]---------0-----0-------2--]
G]---------6-----4-------2--]
D]---------6-----4-------2--]
A]---------4-----2-------0--]
E]---------0-----0-------0--]

Guitar 1
e]---------------------------------------]2x
B]---------5h4---------------------------]
G]-------------6p4-----------------------]
D]-------------------2--4--6---2--4--6---]
A]--------------------------------------4]
E]---------------------------------------]

"La lalalala, la la la, la lala, la"
Guitar 1
e]---------------------------------------]2x
B]---------5h4---------------------------]
G]-------------6p4-----------------------]
D]-------------------2--4--6---2--4--6---]
A]--------------------------------------4]
E]---------------------------------------]

Verse 2      "Backing away from the problem of pain you never had a home"
Guitar 11
e]---------0-----0-------0--]
B]---------0-----0-------2--]
G]---------6-----4-------2--]
D]---------6-----4-------2--]
A]---------4-----2-------0--]
E]---------0-----0-------0--]

Guitar 1
e]-----------------------]3x   e]-------------------------]
B]-----------------------]     B]-------------------------]
G]-----------------------]     G]-------------------------]
D]---2--4--6---2--4--6---]     D]---2--4--6---------------]
A]----------------------4]     A]-----------7-7-9--7--6--4]
E]-----------------------]     E]-------------------------]


Chorus          "this is the correlation of salvation and love"
Guitar 11
e]---------0-----0-------0--]
B]---------0-----0-------2--]
G]---------6-----4-------2--]
D]---------6-----4-------2--]
A]---------4-----2-------0--]
E]---------0-----0-------0--]

Guitar 1
e]---------------------------------------]4x
B]---------5h4---------------------------]
G]-------------6p4-----------------------]
D]-------------------2--4--6---2--4--6---]
A]--------------------------------------4]
E]---------------------------------------]

Bridge     "You're so brilliant, don't soon forget"
Guitar 1
e]----0-0-0-0-----2-2-2-2------0-0-0-0------7-7-7-7]3x
B]---0-0-0-0-----0-0-0-0------0-0-0-0------7-7-7-7-]
G]--2-2-2-2-----2-2-2-2------2-2-2-2------4-4-4-4--]
D]-------------------------------------------------]
A]-------------------------------------------------]
E]-------------------------------------------------]

Guitar 2: Strum
    A2          C#m         A2           Bsus

Chorus          "this is the correlation of salvation and love"
Guitar 11
e]---------0-----0-------0--]
B]---------0-----0-------2--]
G]---------6-----4-------2--]
D]---------6-----4-------2--]
A]---------4-----2-------0--]
E]---------0-----0-------0--]

Guitar 1
e]---------------------------------------]6x
B]---------5h4---------------------------]
G]-------------6p4-----------------------]
D]-------------------2--4--6---2--4--6---]
A]--------------------------------------4]
E]---------------------------------------]

Last Verse
Guitar 1
e]----0-0-0-0-----2-2-2-2------0-0-0-0------7-7-7-7]1x
B]---0-0-0-0-----0-0-0-0------0-0-0-0------7-7-7-7-]
G]--2-2-2-2-----2-2-2-2------2-2-2-2------4-4-4-4--]
D]-------------------------------------------------]
A]-------------------------------------------------]
E]-------------------------------------------------]

Enjoy...
Tap to rate this tab
 
# A B C D E F G H I J K L M N O P Q R S T U V W X Y Z