Song name
# A B C D E F G H I J K L M N O P Q R S T U V W X Y Z

Anberlin - Burn Out Brighter Northern Lights tab

Song: Burn Out Brighter (Northern Lights)
Artist: Anberlin
Tab Created By: MrBluePie

Tuning: Drop D (D A D G b e)

Intro:

Guitar 1
e|------------------------------------------------|
b|------------------------------------------------|
G|-5p0-12p0-5h7s9p0-5p0-12p0-5h7s9p0--------------|
D|------------------------------------------------|
A|------------------------------------------------|
D|------------------------------------------------|

e|------------------------------------------------|
b|------------------------------------------------|
G|-5p0-12p0-5h7s9p0-10p0-9p0-7h9p7s5p0------------|
D|------------------------------------------------|
A|------------------------------------------------|
D|------------------------------------------------|

Guitar 2 - Listen to the song for strum pattern
e|------------------------------------------------|
b|------------------------------------------------|
G|------------------------------------------------|
D|-3--7--5--0-------------------------------------|
A|-3--7--5--0-------------------------------------|
D|-3--7--5--0-------------------------------------|


Verse:

Guitar 1
e|------------------------------------------------|
b|------------------------------------------------|
G|------------------------------------------------|
D|-10-10-x--9-9-9-10-10-x-9-9-9-10-10-9-9---------|
A|-8--8--x--8-8-8-8--8--x-8-8-8-8--8--8-8---------|
D|------------------------------------------------|

e|------------------------------------------------|
b|------------------------------------------------|
G|------------------------------------------------|
D|-12-12-x--10-10-10-12-12-x-10-10-10-12-12-10-10-|
A|-0--0--x--0--0--0--0--0--x-0--0--0--0--0--0--0--|
D|------------------------------------------------|

e|------------------------------------------------|
b|------------------------------------------------|
G|------------------------------------------------|
D|-10-10-x--9-9-9-10-10-x-9-9-9-10-10-9-9---------|
A|-8--8--x--8-8-8-8--8--x-8-8-8-8--8--8-8---------|
D|------------------------------------------------|

e|------------------------------------------------|
b|------------------------------------------------|
G|------------------------------------------------|
D|-12-12-x--10-10-10-9-9--x-7-7-7-9-9-9-9---------|
A|-0--0--x--0--0--0--0-0--x-0-0-0-0-0-0-0---------|
D|------------------------------------------------|

e|------------------------------------------------|
b|------------------------------------------------|
G|------------------------------------------------|
D|-10-10-x--9-9-9-10-10-x-9-9-9-10-10-9-9---------|
A|-8--8--x--8-8-8-8--8--x-8-8-8-8--8--8-8---------|
D|------------------------------------------------|

e|------------------------------------------------|
b|------------------------------------------------|
G|------------------------------------------------|
D|-12-12-x--10-10-10-12-12-x-10-10-10-12-12-10-10-|
A|-0--0--x--0--0--0--0--0--x-0--0--0--0--0--0--0--|
D|------------------------------------------------|

e|------------------------------------------------|
b|------------------------------------------------|
G|------------------------------------------------|
D|-10-10-x--9-9-9-10-10-x-9-9-9-10-10-9-9---------|
A|-8--8--x--8-8-8-8--8--x-8-8-8-8--8--8-8---------|
D|------------------------------------------------|

e|------------------------------------------------|
b|------------------------------------------------|
G|------------------------------------------------|
D|-12-12-x--10-10-10-9-9-5-5-5-5------------------|
A|-0--0--x--0--0--0--0-0-5-5-5-5------------------|
D|------------------------------------------------|

Guitar 2
e|-------------------------------------------------|
b|-------------------------------------------------|
G|-12-12-12-12-12-12-12-12-12-12-12-12-12-12-12-12-|
D|-10-10-10-9--9--9--10-10-10-9--9--9--10-10-9--9--|
A|-------------------------------------------------|
D|-------------------------------------------------|

e|-------------------------------------------------|
b|-------------------------------------------------|
G|-12-12-12-12-12-12-12-12-12-12-12-12-12-12-12-12-|
D|-12-12-12-10-10-10-12-12-12-10-10-10-12-12-10-10-|
A|-------------------------------------------------|
D|-------------------------------------------------|

e|-------------------------------------------------|
b|-------------------------------------------------|
G|-12-12-12-12-12-12-12-12-12-12-12-12-12-12-12-12-|
D|-10-10-10-9--9--9--10-10-10-9--9--9--10-10-9--9--|
A|-------------------------------------------------|
D|-------------------------------------------------|

e|------------------------------------------------|
b|------------------------------------------------|
G|-12-12-12-12-12-12-12-12------------------------|
D|-12-12-12-10-10-10-12-12------------------------|
A|-------------------------5-5-5-5----------------|
D|-------------------------5-5-5-5----------------|

I'll update it more when I get time.
Tap to rate this tab
 
# A B C D E F G H I J K L M N O P Q R S T U V W X Y Z