Anberlin - Mother tab

----------------------------------------------------------------------------
			     Mother - Anberlin
----------------------------------------------------------------------------
Tabbed by: Stephen P.
Email: Stevex106@aol.com

Tuning: Drop D


e|-------------|
B|-------------|
G|-------7-----|
D|-----0-------|
A|-------------|
D|---5---------|

e|-----------------------------------|
B|-----------------------------------|Repeat
G|-------3---------5--------7--------|This
D|-----0---------0--------0----------|Throughout
A|-----------------------------------|Song
D|---1---------3--------5------------|
                        Mother....<--Lyrics start here on 4th repeat
Tap to rate this tab
 
# A B C D E F G H I J K L M N O P Q R S T U V W X Y Z