Song name
# A B C D E F G H I J K L M N O P Q R S T U V W X Y Z

Anberlin - We Owe This To Ourselves tab

Hey guys this is "We owe this to ourselves" by Anberlin.
I tabbed this by ear tonight... the chorus may not be exact..but its too difficult to 
out the actual thing...enjoy. Take care.

-Parzan (parzann@gmail.com)

Tuning:- Drop D

Key:-
p = pull-off
h = hammer-on
x = dead notes
~ = vibrato


Intro:-

Guitar 1:  x 8
e|-----------------------------------------------|
B|-----------------------------------------------|
G|-----------------------------------------------|
D|-----------------------------------------------|
A|-------------12------------12------------------|
D|---12p10h12------12p10h12------12p10h12--------|


Guitar2:  x 2 (only the 3rd and 4th time, when Guitar 1 plays)
e|-----------------------------------------------|
B|-----------------------------------------------|
G|-------------14------------14------------------|
D|---12p10h12------12p10h12------12p10h12--------|
A|-----------------------------------------------|
D|-----------------------------------------------|


Verse:-

Bar 1:-  x 3
e|---------------------------------------------------------------------------------|
B|---------------------------------------------------------------------------------|
G|---------------------------------------------------------------------------------|
D|---------------------------------------------------------------------------------|
A|-------8-------8--------------5-------5-----------------12----------12-----------|
D|-8p7h8---8p7h8---8p7h8--5h7p5---5h7p5---5h7p5--12p10h12----12p10h12----12p10h12--|

e|------------------------------------------|
B|------------------------------------------|
G|------------------------------------------|
D|------------------------------------------|
A|-------------12------------12-------------|
D|---12p10h12------12p10h12------12p10h12---|

Bar 2:-
e|----------------------------------------------------------------------|
B|----------------------------------------------------------------------|
G|----------------------------------------------------------------------|
D|--------------------------------------------------------x-x-x-x-x-x---|
A|----------8---------8------------------10-----------10--x-x-x-x-x-x---|
D|---8p7h8-----8p7h8-----8p7h8--10p8h10------10p8h10------x-x-x-x-x-x---|


Chorus:-  x 2

e|-----------------------------------------------------------------------------------|
B|-----------------------------------------------------------------------------------|
G|--10-10-10-10-10101010--14-14-14-14-14141414--10-10-10-10-10101010--5-5--7-7-7777--|
D|--x--x--x--x--x-x-x-x---x--x--x--x--x-x-x-x---x--x--x--x--x-x-x-x---x-x--x-x-xxxx--|
A|--8--8--8--8--8-8-8-8---12-12-12-12-12121212--8--8--8--8--8-8-8-8---3-3--5-5-5555--|
D|-----------------------------------------------------------------------------------|


Pre-Verse:-

Guitar 1:  x 4
e|------------------------------------------|
B|------------------------------------------|
G|------------------------------------------|
D|------------------------------------------|
A|-------------12------------12-------------|
D|---12p10h12------12p10h12------12p10h12---|


Verse:-


Bar 1:-  x 2
e|---------------------------------------------------------------------------------|
B|---------------------------------------------------------------------------------|
G|---------------------------------------------------------------------------------|
D|---------------------------------------------------------------------------------|
A|-------8-------8--------------5-------5-----------------12----------12-----------|
D|-8p7h8---8p7h8---8p7h8--5h7p5---5h7p5---5h7p5--12p10h12----12p10h12----12p10h12--|

e|------------------------------------------|
B|------------------------------------------|
G|------------------------------------------|
D|------------------------------------------|
A|-------------12------------12-------------|
D|---12p10h12------12p10h12------12p10h12---|

Bar 2:-
e|----------------------------------------------------------------------|
B|----------------------------------------------------------------------|
G|----------------------------------------------------------------------|
D|--------------------------------------------------------x-x-x-x-x-x---|
A|----------8---------8------------------10-----------10--x-x-x-x-x-x---|
D|---8p7h8-----8p7h8-----8p7h8--10p8h10------10p8h10------x-x-x-x-x-x---|


Chorus:-  x 2

e|-----------------------------------------------------------------------------------|
B|-----------------------------------------------------------------------------------|
G|--10-10-10-10-10101010--14-14-14-14-14141414--10-10-10-10-10101010--5-5--7-7-7777--|
D|--x--x--x--x--x-x-x-x---x--x--x--x--x-x-x-x---x--x--x--x--x-x-x-x---x-x--x-x-xxxx--|
A|--8--8--8--8--8-8-8-8---12-12-12-12-12121212--8--8--8--8--8-8-8-8---3-3--5-5-5555--|
D|-----------------------------------------------------------------------------------|


Pre-Verse:-

Guitar 1:  x 4
e|------------------------------------------|
B|------------------------------------------|
G|------------------------------------------|
D|------------------------------------------|
A|-------------12------------12-------------|
D|---12p10h12------12p10h12------12p10h12---|


Bridge:- (listen to the song for the timing)

e|---------------------------------------------------------------15-17~~--|
B|------------------------------------------17-18---20~~~~----18----------|
G|-------------------12---12-14~~-15~~~~-14----------------14-------------|
D|-12---14--14-15~~-------------------------------------------------------|
A|------------------------------------------------------------------------|
D|------------------------------------------------------------------------|

e|-------------------------------------------------|
B|-------------------------------------------------|
G|-------------------------------------------------|
D|--8----10----12--------------x-x-x-x-x-x-x-x-x---|
A|-----------------------------x-x-x-x-x-x-x-x-x---|
D|-----------------------------x-x-x-x-x-x-x-x-x---|


Chorus:-  x 4

e|-----------------------------------------------------------------------------------|
B|-----------------------------------------------------------------------------------|
G|--10-10-10-10-10101010--14-14-14-14-14141414--10-10-10-10-10101010--5-5--7-7-7777--|
D|--x--x--x--x--x-x-x-x---x--x--x--x--x-x-x-x---x--x--x--x--x-x-x-x---x-x--x-x-xxxx--|
A|--8--8--8--8--8-8-8-8---12-12-12-12-12121212--8--8--8--8--8-8-8-8---3-3--5-5-5555--|
D|-----------------------------------------------------------------------------------|
Tap to rate this tab
 
# A B C D E F G H I J K L M N O P Q R S T U V W X Y Z