Anberlin - We Owe This To Ourselves tab

--------------------- We Owe This to Ourselves- Anberlin --------------------------
Tabbed by: Justincase289
Email: teamamericajustin@gmail.com
RATE and LET ME KNOW IF ITS GOOD!! Thanks
Tuning: Drop D

Intro:
e|-------------------------------------|
B|-------------------------------------|
G|-------------------------------------|
D|-------------------------------------|
A|-----------12----------12------------|
D|-10-h12-p10--10-h12-p10--10-h12-p10--|   play this lick 4x

Verse:
e|------------------------------------------------------------|
B|------------------------------------------------------------|
G|------------------------------------------------------------|
D|------------------------------------------------------------|
A|--------8---------8-------------------5---------5-----------|
D|-7-h8-p7---7-h8-p7---7-h8-p7---7-h8-p7---7-h8-p7---7-h8-p7--|

e|------------------------------------------------------------------------|
B|------------------------------------------------------------------------|
G|------------------------------------------------------------------------|
D|------------------------------------------------------------------------|
A|-----------12----------12----------------------12----------12-----------|
D|-10-h12-p10--10-h12-p10--10-h12-p10--10-h12-p10--10-h12-p10--10-h12-p10-|

e|------------------------------------------------------------|
B|------------------------------------------------------------|
G|------------------------------------------------------------|
D|------------------------------------------------------------|
A|--------8---------8-------------------5---------5-----------|
D|-7-h8-p7---7-h8-p7---7-h8-p7---7-h8-p7---7-h8-p7---7-h8-p7--|

e|------------------------------------------------------------------------|
B|------------------------------------------------------------------------|
G|------------------------------------------------------------------------|
D|------------------------------------------------------------------------|
A|-----------12----------12----------------------12----------12-----------|
D|-10-h12-p10--10-h12-p10--10-h12-p10--10-h12-p10--10-h12-p10--10-h12-p10-|

e|------------------------------------------------------------|
B|------------------------------------------------------------|
G|------------------------------------------------------------|
D|------------------------------------------------------------|
A|--------8---------8-------------------5---------5-----------|
D|-7-h8-p7---7-h8-p7---7-h8-p7---7-h8-p7---7-h8-p7---7-h8-p7--|


Chorus:
e|----------------------------------------|
B|----------------------------------------|
G|-1010101010101010---1414141414141414----|
D|--x-x-x-x-x-x-x-x----x-x-x-x-x-x-x-x----|
A|--8-8-8-8-8-8-8-8--- 1212121212121212---|
D|----------------------------------------|
We owe this to ourselves

e|--------------------------------------|
B|--------------------------------------|
G|-1010101010101010---14141414--5-5-5-5-|
D|--x-x-x-x-x-x-x-x----x-x-x-x--x-x-x-x-|
A|--8-8-8-8-8-8-8-8---12121212--3-3-3-3-|
D|--------------------------------------|
We owe this to ourselves, we cant just let this go

e|----------------------------------------|
B|----------------------------------------|
G|-1010101010101010---1414141414141414----|
D|--x-x-x-x-x-x-x-x----x-x-x-x-x-x-x-x----|
A|--8-8-8-8-8-8-8-8--- 1212121212121212---|
D|----------------------------------------|
We owe this to ourselves

e|--------------------------------------|
B|--------------------------------------|
G|-1010101010101010---14141414--5-5-5-5-|
D|--x-x-x-x-x-x-x-x----x-x-x-x--x-x-x-x-|
A|--8-8-8-8-8-8-8-8---12121212--3-3-3-3-|
D|--------------------------------------|
We owe this to ourselves, we cant just let this go

e|-------------------------------------|
B|-------------------------------------|
G|-------------------------------------|
D|-------------------------------------|
A|-----------12----------12------------|
D|-10-h12-p10--10-h12-p10--10-h12-p10--|   play this lick 4x
goooooooooooooooooooooooooooooooooooo

Verse 2:
e|------------------------------------------------------------|
B|------------------------------------------------------------|
G|------------------------------------------------------------|
D|------------------------------------------------------------|
A|--------8---------8-------------------5---------5-----------|
D|-7-h8-p7---7-h8-p7---7-h8-p7---7-h8-p7---7-h8-p7---7-h8-p7--|

e|------------------------------------------------------------------------|
B|------------------------------------------------------------------------|
G|------------------------------------------------------------------------|
D|------------------------------------------------------------------------|
A|-----------12----------12----------------------12----------12-----------|
D|-10-h12-p10--10-h12-p10--10-h12-p10--10-h12-p10--10-h12-p10--10-h12-p10-|

e|------------------------------------------------------------|
B|------------------------------------------------------------|
G|------------------------------------------------------------|
D|------------------------------------------------------------|
A|--------8---------8-------------------5---------5-----------|
D|-7-h8-p7---7-h8-p7---7-h8-p7---7-h8-p7---7-h8-p7---7-h8-p7--|

e|------------------------------------------------------------------------|
B|------------------------------------------------------------------------|
G|------------------------------------------------------------------------|
D|------------------------------------------------------------------------|
A|-----------12----------12----------------------12----------12-----------|
D|-10-h12-p10--10-h12-p10--10-h12-p10--10-h12-p10--10-h12-p10--10-h12-p10-|

e|------------------------------------------------------------|
B|------------------------------------------------------------|
G|------------------------------------------------------------|
D|------------------------------------------------------------|
A|--------8---------8-------------------5---------5-----------|
D|-7-h8-p7---7-h8-p7---7-h8-p7---7-h8-p7---7-h8-p7---7-h8-p7--|

Chorus:
e|----------------------------------------|
B|----------------------------------------|
G|-1010101010101010---1414141414141414----|
D|--x-x-x-x-x-x-x-x----x-x-x-x-x-x-x-x----|
A|--8-8-8-8-8-8-8-8--- 1212121212121212---|
D|----------------------------------------|
We owe this to ourselves

e|--------------------------------------|
B|--------------------------------------|
G|-1010101010101010---14141414--5-5-5-5-|
D|--x-x-x-x-x-x-x-x----x-x-x-x--x-x-x-x-|
A|--8-8-8-8-8-8-8-8---12121212--3-3-3-3-|
D|--------------------------------------|
We owe this to ourselves, we cant just let this go

e|----------------------------------------|
B|----------------------------------------|
G|-1010101010101010---1414141414141414----|
D|--x-x-x-x-x-x-x-x----x-x-x-x-x-x-x-x----|
A|--8-8-8-8-8-8-8-8--- 1212121212121212---|
D|----------------------------------------|
We owe this to ourselves

e|--------------------------------------|
B|--------------------------------------|
G|-1010101010101010---14141414--5-5-5-5-|
D|--x-x-x-x-x-x-x-x----x-x-x-x--x-x-x-x-|
A|--8-8-8-8-8-8-8-8---12121212--3-3-3-3-|
D|--------------------------------------|
We owe this to ourselves, we cant just let this go

e|-------------------------------------|
B|-------------------------------------|
G|-------------------------------------|
D|-------------------------------------|
A|-----------12----------12------------|
D|-10-h12-p10--10-h12-p10--10-h12-p10--|   play this lick 4x
    gooooooooooooooooooooooooooooooo  oooooo
Bridge:
e|----------------------------------15-17------------17~---------------|
B|------------------------15-17-18~--------15-17-18--------------------|
G|------------12~14~15~ ----------------------------------15~ 17~ 19---|
D|-12~14~15~-----------------------------------------------------------|
A|---------------------------------------------------------------------|
D|---------------------------------------------------------------------|

Chorus:
e|----------------------------------------|
B|----------------------------------------|
G|-1010101010101010---1414141414141414----|
D|--x-x-x-x-x-x-x-x----x-x-x-x-x-x-x-x----|
A|--8-8-8-8-8-8-8-8--- 1212121212121212---|
D|----------------------------------------|
We owe this to ourselves

e|--------------------------------------|
B|--------------------------------------|
G|-1010101010101010---14141414--5-5-5-5-|
D|--x-x-x-x-x-x-x-x----x-x-x-x--x-x-x-x-|
A|--8-8-8-8-8-8-8-8---12121212--3-3-3-3-|
D|--------------------------------------|
We owe this to ourselves, we cant just let this go

e|----------------------------------------|
B|----------------------------------------|
G|-1010101010101010---1414141414141414----|
D|--x-x-x-x-x-x-x-x----x-x-x-x-x-x-x-x----|
A|--8-8-8-8-8-8-8-8--- 1212121212121212---|
D|----------------------------------------|
We owe this to ourselves

e|--------------------------------------|
B|--------------------------------------|
G|-1010101010101010---14141414--5-5-5-5-|
D|--x-x-x-x-x-x-x-x----x-x-x-x--x-x-x-x-|
A|--8-8-8-8-8-8-8-8---12121212--3-3-3-3-|
D|--------------------------------------|
We owe this to ourselves, we cant just let this go

e|----------------------------------------|
B|----------------------------------------|
G|--10-10-10-10--55-55-55-55--77-77-77-77-|
D|--xx-xx-xx-xx--xx-xx-xx-xx--xx-xx-xx-xx-|
A|--88-88-88-88--33-33-33-33--55-55-55-55-|
D|----------------------------------------|  play this lick 2x til end
let this goooooooooooooooooooooooooo oooooooo

************************************
| / slide up
| \ slide down
| h hammer-on
| p pull-off
| ~ vibrato
| + harmonic
| x Mute note
| b Bend
| pb Pre-bend
| br Bend release
| pbr Pre-bend release
| brb Bend release bend
************************************
Tap to rate this tab
 
# A B C D E F G H I J K L M N O P Q R S T U V W X Y Z