Song name
# A B C D E F G H I J K L M N O P Q R S T U V W X Y Z

Anberlin - Pray Tell tab

Anberlin - Pray Tell INTRO only

Tuning: Drop D
        D A D G B E
Guitar 1
e|----------------------------------------------------------------------|
B|---11---11---11---11---11---11---10---10---11---11---11---11---11--11-|
G|----------------------------------------------------------------------|
D|----------------------------------------------------------------------|
A|-10---10---10---10---10---10---8----8----10---10---10---10---10---10--|
D|----------------------------------------------------------------------|

e|----------------------------------------------------------------------|
B|---10---10---8---8---8---8---7---7---10---10--8---8---8----8---7---7--|
G|----------------------------------------------------------------------|
D|----------------------------------------------------------------------|
A|-8----8----6---6---6---6---5---5---8----8----6---6---6---6---5---5----|
D|----------------------------------------------------------------------|

e|-----------------|
B|---10---10-------|
G|-----------------|
D|-----------------|
A|-8----8----------|
D|-----------------|

Guitar 1 repeats same stanza again and.....
Guitar 2 plays

e|------------------------------------------------------------------|
B|------------------------------------------------------------------|
G|------------------------------------------------------------------|
D|------------------------------------------------------------------|
A|------------------------------------------------------------------|
D|-55--55--11--33--55--55--11--33--55--55--11--33--55--55--11--33---|

e|--------------------------------|
B|--------------------------------|
G|--------------------------------|
D|--------------------------------|
A|--------------------------------|
D|-11--11--00--33--11-11--33--44--|
Tap to rate this tab
 
# A B C D E F G H I J K L M N O P Q R S T U V W X Y Z