Song name
# A B C D E F G H I J K L M N O P Q R S T U V W X Y Z

Anberlin - Haight Street tab

Anberlin: Haight St.

Tuning: Drop D

Guitar 1 Dist.
--------------------------------------------------|
----13-------13----13--------13-------13----13----|
-10----10--9-----9-----9--12----12-10----10----10-| x5  } This is Riff 1.
--------------------------------------------------|
--------------------------------------------------|
--------------------------------------------------|

Guitar 2 Dist.
------------------------------------------|
------------------------------------------|
------------------------------------------|
-8--8--8-10---10-10-10-10-10-10--0--0-0-0-| x3  } This is Riff 2.
-8--8--8-10---10-10-10-10-10-10--0--0-0-0-|
-8--8--8-10---10-10-10-10-10-10--0--0-0-0-|

Guitar 1:
----------------------------------|
-13--13--13--13--13--13--13--13---|
---10--10--10--10--12--12--12--12-|
----------------------------------|
----------------------------------|
----------------------------------|

Guitar 2:
------------------------------------------------|
------------------------------------------------|
------------------------------------------------|
-8--8--8--8--8--8--8--8-12-12-12-10-10-10-10-10-|
-8--8--8--8--8--8--8--8-12-12-12-10-10-10-10-10-|
-8--8--8--8--8--8--8--8-12-12-12-10-10-10-10-10-|


                                     ~Verse~
Guitar 1:
-------------------------------------------------|
-------------------------------------------------|
-10-10-10-10-10-10-10-10-10-10-10-10-10-10-10-10-|
-7--7--8--8--8--8--8--8--12-12-10-10-10-10-10-10-| x2
-------------------------------------------------|
-------------------------------------------------|

Guitar 2:
-------------------------------------------------|
-------------------------------------------------|
-------------------------------------------------|
-7--7--8--8--8--8--8--8--12-12-10-10-10-10-10-10-|
-7--7--8--8--8--8--8--8--12-12-10-10-10-10-10-10-|
-7--7--8--8--8--8--8--8--12-12-10-10-10-10-10-10-|

                                     ~Chorus~
Guitar 2: Repeat Riff 2


That's all I have for now.
Tap to rate this tab
 
# A B C D E F G H I J K L M N O P Q R S T U V W X Y Z