Song name
# A B C D E F G H I J K L M N O P Q R S T U V W X Y Z

Anberlin - A Perfect Tourniquet tab

Anberlin
A Perfect Tourniquet


Tuning: Standard EADGBe

Chords used:
Bm- x24432
D - x57775
A - 577655
F#- 244322


Intro:
Bm     D         A        Bm
e--------------------------5--3---2-------|
b------5---------5/7----------------5-3---|
g----7---------7---------7----------------|
d--7---------7----------------------------|  X2
a-----------------------------------------|
E-----------------------------------------|

Verse
  Bm       D         A         Bm
e--------------------------------------|
b--------------------------------------|
g--------------------------------------|
d--------------------------------------|
a--------------------------------------|
E--------------------------------------|


  F#            D     A
e--------------------------------------|
b--------------------5/7/5-------------|
g------2--4--6--4----------------------|
d---4----------------------------------|
a--------------------------------------|
E--------------------------------------|


Chorus
---- repeat intro ----


-brige-
 Bm               D              A
e---------------------------------------------------------------|
b--------5--------------8--------------7--------------7---------|
g----4-----4--------7-----7--------7-----7--------7-----7-------|
d--2---2-----2----5---5-----5----5---7-----5----5---7-----5-----|  x4
a---------------------------------------------------------------|
E---------------------------------------------------------------|

-then

e-----------------------------------------------|
b--------3---------0----------3----------0------|
g------4---------4----------4----------4--------|
d----4---------4----------4----------4----------|
a--2---------2----------2----------2------------|
E-----------------------------------------------|

Bm     D         A        Bm
e--------------------------5--3---2-------|
b------5---------5/7----------------5-3---|
g----7---------7---------7----------------|
d--7---------7----------------------------|
a-----------------------------------------|
E-----------------------------------------|


Bm     D         A        Bm
e-----------------------------------------|
b------5---------5/7-----3--2--2----3-----|
g----7---------7------------------2---4---|
d--7---------7----------------------------|
a-----------------------------------------|
E-----------------------------------------|


then repeat course
Tap to rate this tab
# A B C D E F G H I J K L M N O P Q R S T U V W X Y Z