Anberlin - Down tab

Down intro tab

Hey all, I know this probably isn't perfect, but I thought I'd try to get
the intro tab down so others can start fixing it up. Here's my take on it:

First phrase:
e-----------------------------------------|
B------8-8-7------------------------------|
G-------------9-9-7-----------------------|
D-7h9---------------7b8?-5---7h9-7/5------|
A------------------------------------7----|
E-----------------------------------------|

Second phrase:
e-----------------------------------------|
B------8-8-7----------8/10-10h12-10-8-7-5-|
G-------------9-9-7-----------------------|
D-7h9-------------------------------------|
A-----------------------------------------|
E-----------------------------------------|

Then they repeat the two phrases again, and the vocals start.
Tap to rate this tab
 
# A B C D E F G H I J K L M N O P Q R S T U V W X Y Z