Song name
# A B C D E F G H I J K L M N O P Q R S T U V W X Y Z

Anberlin - We Owe This To Ourselves tab

Anberlin – We Owe This to Ourselves

Tuning: Drop D

You can check out my shitty cover at http://www.youtube.com/watch?v=2o8WEN4hzwo

From what I observed from their live videos and music video, Christian is playing more 
the rhythm parts while Joseph is playing more of the lead parts.

Guitar 1:  Christian
Guitar 2:  Joseph

Intro

Guitar 1

E|------------------------------------------------|
B|------------------------------------------------|
G|------------------------------------------------|
D|------------------------------------------------|
A|-----------12-----------12----------------------|
D|-0—10-h-12----0—10-h-12-----0—10-h-12-----------|

Guitar 2 (Around 5 sec)

E|------------------------------------------------|
B|------------------------------------------------|
G|-----------14-----------14----------------------|
D|-0-10-h-12----0-10-h-12----0-10-h-12------------|
A|------------------------------------------------|
D|------------------------------------------------|


Verse

Guitar 1

E|---------------------------------------------------------------------|
B|---------------------------------------------------------------------|
G|---------------------------------------------------------------------|
D|---------------------------------------------------------------------|
A|----------8-----------8--------------------5---------5---------------|
D|-0—5-h-7------0—5-h-7----0-5-h-7---0-3-h-5---0-3-h-5----0-3-h-5------|

E|------------------------------------------------|
B|------------------------------------------------|
G|------------------------------------------------|
D|------------------------------------------------|
A|-----------12-----------12----------------------|
D|-0—10-h-12----0—10-h-12-----0—10-h-12-----------| x2


Guitar 2

E|---------------------------------------------------------------------|
B|---------------------------------------------------------------------|
G|---------------------------------------------------------------------|
D|---------------------------------------------------------------------|
A|----------8-----------8--------------------5---------5---------------|
D|-0—5-h-7------0—5-h-7----0-5-h-7---0-3-h-5---0-3-h-5----0-3-h-5------|

E|------------------------------------------------|
B|------------------------------------------------|
G|-----------14-----------14----------------------|
D|-0-10-h-12----0-10-h-12----0-10-h-12------------|
A|------------------------------------------------|
D|------------------------------------------------|x2


Part to the Chorus

Guitar 1 and 2

E|--------------------------------------------------------------------|
B|--------------------------------------------------------------------|
G|--------------------------------------------------------------------|
D|-----------------------------------------------------------x-x--x-x-|
A|----------8-----------8--------------------10----------10--x-x--x-x-|
D|-0—5-h-7------0—5-h-7----0-5-h-7--0-8-h-10----0-8-h-10-----x-x--x-x-|


Chorus

Guitar 1

E|-----------------------------|
B|-----------------------------|
G|--10------10------10---------|
D|--10------10------12---------|
A|---x-------x-------x---------|
D|---8------10------12---------|

Guitar 2 (Add a bit of Delay)

E|------------------------------------------------|
B|-----------------------11-11-11-10--------------|
G|-10-9---5--7-7--x3-----10-10-10-10--------------|
D|------------------------------------------------|
A|------------------------------------------------|
D|------------------------------------------------|


Back to the Intro

Then Verse

Part to the Chorus

Chorus

Back to the Intro


Bridge

Have really figure Guitar 1’s part yet.. from what I seen on the live videos, Christian 
playing some finger picking stuff


Guitar 2 ‘Solo’
Need a bit of delay for this one

E|------------------------------------------------------|
B|------------------------------------------------------|
G|----9--9-h-10--12-/-14--14^---------------------------|
D|-10---------------------------------------------------|
A|------------------------------------------------------|
D|------------------------------------------------------|

E|----------------15--------------------17--------------|
B|-----17-/-18---------------18-/-20--------------------|
G|-14------------------14-------------------------------|
D|------------------------------------------------------|
A|------------------------------------------------------|
D|------------------------------------------------------|

E|----------------------------------------------------|
B|----------------------------------------------------|
G|--3-----5----7--------------------------------------|
D|---------------------------x--x---x--x--------------|
A|---------------------------x--x---x--x--------------|
D|---------------------------x--x---x--x--------------|


Chorus all the way
Tap to rate this tab
 
# A B C D E F G H I J K L M N O P Q R S T U V W X Y Z