Guitaretab - guitar tabs
Song name
# A B C D E F G H I J K L M N O P Q R S T U V W X Y Z

Anberlin - We Owe This To Ourselves tab

Guitar 1:

DADGBe

Intro:
e|---------------------------------|
B|---------------------------------|
G|---------------------------------| X8
D|---------------------------------|
A|--------12----------12-----------|
D|-0h10h12----0h10h12-----0h10h12--|


Verse 1: 
e|--------------------------------------------|
B|--------------------------------------------|
G|--------------------------------------------|
D|----------------------------5------5--------|
A|-------8------8-----------------------------|
D|--0h7h8--0h7h8--0h7h8--0h3h5--0h3h5--0h3h5--|

e|---------------------------------|
B|---------------------------------|
G|---------------------------------| X2
D|---------------------------------|
A|--------12----------12-----------|
D|-0h10h12----0h10h12-----0h10h12--|

e|--------------------------------------------|
B|--------------------------------------------|
G|--------------------------------------------|
D|----------------------------5------5--------|
A|-------8------8-----------------------------|
D|--0h7h8--0h7h8--0h7h8--0h3h5--0h3h5--0h3h5--|

e|---------------------------------|
B|---------------------------------|
G|---------------------------------| X2
D|---------------------------------|
A|--------12----------12-----------|
D|-0h10h12----0h10h12-----0h10h12--|

e|--------------------------------------------|
B|--------------------------------------------|
G|--------------------------------------------|
D|----------------------------5------5--------|
A|-------8------8-----------------------------|
D|--0h7h8--0h7h8--0h7h8--0h3h5--0h3h5--0h3h5--|

e|---------------------------------|
B|---------------------------------|
G|---------------------------------| X2
D|---------------------------------|
A|--------12----------12-----------|
D|-0h10h12----0h10h12-----0h10h12--|

e|--------------------------------------------|
B|--------------------------------------------|
G|--------------------------------------------|
D|----------------------------5------5--------|
A|-------8------8-----------------------------|
D|--0h7h8--0h7h8--0h7h8--0h3h5--0h3h5--0h3h5--|

e|---------------------------------|
B|---------------------------------|
G|---------------------------------| X2
D|---------------------------------|
A|--------12----------12-----------|
D|-0h10h12----0h10h12-----0h10h12--|


Pre-Chorus:
e|--------------------------------------------x-x-x-x-|
B|--------------------------------------------x-x-x-x-|
G|--------------------------------------------x-x-x-x-|
D|------------------------------10--------10--x-x-x-x-|
A|-------8------8-----------------------------x-x-x-x-|
D|--0h7h8--0h7h8--0h7h8--0h8h10----0h8h10-----x-x-x-x-|


Chorus:
e|----------------------------------------|
B|----------------------------------------|
G|-1010101010101010---1414141414141414----|
D|--x-x-x-x-x-x-x-x---x-x-x-x-x-x-x-x-----|
A|--8-8-8-8-8-8-8-8---1212121212121212----|
D|----------------------------------------|

e|--------------------------------------|
B|--------------------------------------|
G|-1010101010101010---14141414--5-5-5-5-|
D|--x-x-x-x-x-x-x-x---x-x-x-x---x-x-x-x-|
A|--8-8-8-8-8-8-8-8---12121212--3-3-3-3-|
D|--------------------------------------|

e|----------------------------------------|
B|----------------------------------------|
G|-1010101010101010---1414141414141414----|
D|--x-x-x-x-x-x-x-x---x-x-x-x-x-x-x-x-----|
A|--8-8-8-8-8-8-8-8---1212121212121212----|
D|----------------------------------------|

e|--------------------------------------|
B|--------------------------------------|
G|-1010101010101010---14141414--5-5-5-5-|
D|--x-x-x-x-x-x-x-x---x-x-x-x---x-x-x-x-|
A|--8-8-8-8-8-8-8-8---12121212--3-3-3-3-|
D|--------------------------------------|


Interlude:
e|---------------------------------|
B|---------------------------------|
G|---------------------------------| X4
D|---------------------------------|
A|--------12----------12-----------|
D|-0h10h12----0h10h12-----0h10h12--|


Verse 2:
e|--------------------------------------------|
B|--------------------------------------------|
G|--------------------------------------------|
D|----------------------------5------5--------|
A|-------8------8-----------------------------|
D|--0h7h8--0h7h8--0h7h8--0h3h5--0h3h5--0h3h5--|
[ Tab from: http://www.guitaretab.com/a/anberlin/249843.html ]
e|---------------------------------|
B|---------------------------------|
G|---------------------------------| X2
D|---------------------------------|
A|--------12----------12-----------|
D|-0h10h12----0h10h12-----0h10h12--|

e|--------------------------------------------|
B|--------------------------------------------|
G|--------------------------------------------|
D|----------------------------5------5--------|
A|-------8------8-----------------------------|
D|--0h7h8--0h7h8--0h7h8--0h3h5--0h3h5--0h3h5--|

e|---------------------------------|
B|---------------------------------|
G|---------------------------------| X2
D|---------------------------------|
A|--------12----------12-----------|
D|-0h10h12----0h10h12-----0h10h12--|


Pre-Chorus:
e|--------------------------------------------x-x-x-x-|
B|--------------------------------------------x-x-x-x-|
G|--------------------------------------------x-x-x-x-|
D|------------------------------10--------10--x-x-x-x-|
A|-------8------8-----------------------------x-x-x-x-|
D|--0h7h8--0h7h8--0h7h8--0h8h10----0h8h10-----x-x-x-x-|


Chorus:
e|----------------------------------------|
B|----------------------------------------|
G|-1010101010101010---1414141414141414----|
D|--x-x-x-x-x-x-x-x---x-x-x-x-x-x-x-x-----|
A|--8-8-8-8-8-8-8-8---1212121212121212----|
D|----------------------------------------|

e|--------------------------------------|
B|--------------------------------------|
G|-1010101010101010---14141414--5-5-5-5-|
D|--x-x-x-x-x-x-x-x---x-x-x-x---x-x-x-x-|
A|--8-8-8-8-8-8-8-8---12121212--3-3-3-3-|
D|--------------------------------------|

e|----------------------------------------|
B|----------------------------------------|
G|-1010101010101010---1414141414141414----|
D|--x-x-x-x-x-x-x-x---x-x-x-x-x-x-x-x-----|
A|--8-8-8-8-8-8-8-8---1212121212121212----|
D|----------------------------------------|

e|--------------------------------------|
B|--------------------------------------|
G|-1010101010101010---14141414--5-5-5-5-|
D|--x-x-x-x-x-x-x-x---x-x-x-x---x-x-x-x-|
A|--8-8-8-8-8-8-8-8---12121212--3-3-3-3-|
D|--------------------------------------|


Interlude:
e|---------------------------------|
B|---------------------------------|
G|---------------------------------| X4
D|---------------------------------|
A|--------12----------12-----------|
D|-0h10h12----0h10h12-----0h10h12--|


Bridge:
e|----------------------------------15-17------------17~---------------|
B|------------------------15-17-18~--------15-17-18--------------------|
G|------------12~14~15~ ----------------------------------15~ 17~ 19---|
D|-12~14~15~-----------------------------------------------------------|
A|---------------------------------------------------------------------|
D|---------------------------------------------------------------------|
Have a play with sliding between some of the notes

e|-x-x-x-x-x-x-x-x-|
B|-x-x-x-x-x-x-x-x-|
G|-x-x-x-x-x-x-x-x-|
D|-x-x-x-x-x-x-x-x-|
A|-x-x-x-x-x-x-x-x-|
D|-x-x-x-x-x-x-x-x-|


Chorus:
e|----------------------------------------|
B|----------------------------------------|
G|-1010101010101010---1414141414141414----|
D|--x-x-x-x-x-x-x-x---x-x-x-x-x-x-x-x-----|
A|--8-8-8-8-8-8-8-8---1212121212121212----|
D|----------------------------------------|

e|--------------------------------------|
B|--------------------------------------|
G|-1010101010101010---14141414--5-5-5-5-|
D|--x-x-x-x-x-x-x-x---x-x-x-x---x-x-x-x-|
A|--8-8-8-8-8-8-8-8---12121212--3-3-3-3-|
D|--------------------------------------|

e|----------------------------------------|
B|----------------------------------------|
G|-1010101010101010---1414141414141414----|
D|--x-x-x-x-x-x-x-x---x-x-x-x-x-x-x-x-----|
A|--8-8-8-8-8-8-8-8---1212121212121212----|
D|----------------------------------------|

e|--------------------------------------|
B|--------------------------------------|
G|-1010101010101010---14141414--5-5-5-5-|
D|--x-x-x-x-x-x-x-x---x-x-x-x---x-x-x-x-|
A|--8-8-8-8-8-8-8-8---12121212--3-3-3-3-|
D|--------------------------------------|

Outro:
e|----------------------------------------|
B|----------------------------------------|
G|--10-10-10-10--55-55-55-55--77-77-77-77-|
D|--xx-xx-xx-xx--xx-xx-xx-xx--xx-xx-xx-xx-| x2
A|--88-88-88-88--33-33-33-33--55-55-55-55-|
D|----------------------------------------|
I'll put the other part up soon
Related for We Owe This To Ourselves tab
×
Best way to learn
"We Owe This To Ourselves"