Song name
# A B C D E F G H I J K L M N O P Q R S T U V W X Y Z

Anberlin - To The Wolves tab

Artist: Anberlin
Song: To The Wolves
Tuning Drop D. (DADGBE)

This isnít prefect so if anyone has any comments for it let me know.  Thanks.

Intro:
Guitar 1
-----------------------------------------------------------|
-5h7777--77555-5h7777--77555-------------------------------|
-----------------------------------------------------------| x4
-----------------------------------------------------------|
-----------------------------------------------------------|
-----------------------------------------------------------|
Guitar 2
-----------------------------------------------------------|
-----------------------------------------------------------|
-----------------------------------------------------------| x2
-4--44--4--44--420--00--0--00--024-------------------------|
-4--44--4--44--420--00--0--00--024-------------------------|
-4--44--4--44--420--00--0--00--024-------------------------|
Verse:
Guitar 1 clean
-----------------------------------------------------------|
-7-----7-----7-----7---------------------------------------|
-6-----6-----6-----6---------------------------------------| x2
-4-----4-----4-----4---------------------------------------|
-4-----0-----4-----0---------------------------------------|
-----------------------------------------------------------|
Guitar 2 comes in with bass
-----------------------------------------------------------------|
-----------------------------------------------------------------|
-6-6-66-6-66-66-6-66-66-6-66-6-99--22-22-2-22-22-2-22-22-2-22-22-|
-4-4-44-4-44-44-4-44-44-4-44-4-77--00-00-0-00-00-0-00-00-0-00-00-|
-----------------------------------------------------------------|
-----------------------------------------------------------------|
Pre Chorus:
Guitar 1
--9---9------5---5------2---2-------------------------7-7-7--|
----7---7--7---5---5--5---2---2--2-5---5------2---2----------|
-------------------------------------4---4--4---4---4--------| x2
-------------------------------------------------------------|
-------------------------------------------------------------|
-------------------------------------------------------------|
Guitar 2
---------------------------------------|
---------------------------------------|
---------------------------------------| x2
---------------------------------------|
---------------------------------------|
-4444444444444444-00000000-22222222----|
Transition to chorus
---------------------|
---------------------|
---------------------|
-0-7-9-7-9-0-2-7-4---|
-0-7-9-7-9-0-2-7-4---|
-0-7-9-7-9-0-2-7-4---|
Chorus:
Guitar 1
-----------------------------------------------------------|
-5h7777--77555-5h7777--77555-------------------------------|
-----------------------------------------------------------| x4
-----------------------------------------------------------|
-----------------------------------------------------------|
-----------------------------------------------------------|
Guitar 2
-----------------------------------------------------------|
-----------------------------------------------------------|
-----------------------------------------------------------| x2
-4--44--4--44--420--00--0--00--024-------------------------|
-4--44--4--44--420--00--0--00--024-------------------------|
-4--44--4--44--420--00--0--00--024-------------------------|

Verse:
Pre Chorus:
Chorus:

Solo:
Guitar 1
-----9~---------12~-----9~----------------9~---------12~---|
--7~----10~-12~------7~----10~-12~-5~--7~----10~-12~-------|
-----------------------------------------------------------|
-----------------------------------------------------------|
-----------------------------------------------------------|
-----------------------------------------------------------|

---12b14-12b14-12b14-12b14-12b14b12b14b12------------------|
-----------------------------------------------------------|
-----------------------------------------------------------|
-----------------------------------------------------------|
-----------------------------------------------------------|
-----------------------------------------------------------|

-----9~---------12~-----9~----------------9~---------12~-12b14--|
--7~----10~-12~------7~----10~-12~-5~--7~----10~-12~------------|
----------------------------------------------------------------|
----------------------------------------------------------------|
----------------------------------------------------------------|
----------------------------------------------------------------|

Guitar 2
-----------------------------------------------------------|
-----------------------------------------------------------|
-----------------------------------------------------------|
-----------------------------------------------------------|
-----------------------------------------------------------|
-00000000-22229999-44444444-22222222-00000000-22229999-----|

-----------------------------------------------------------|
-----------------------------------------------------------|
-----------------------------------------------------------|
-----------------------------------------------------------|
-----------------------------------------------------------|
-244-244-244-244-2442--------------------------------------|

-----------------------------------------------------------|
-----------------------------------------------------------|
-----------------------------------------------------------|
-----------------------------------------------------------|
-----------------------------------------------------------|
-00000000-22229999-44444444-22222222-00000000-22229999-4---|

Pre Chorus:
Guitar 1 clean
-----------------------------------------------------------|
-7-----7-----7-----7---------------------------------------|
-6-----6-----6-----6---------------------------------------| x2
-4-----4-----4-----4---------------------------------------|
-4-----0-----4-----0---------------------------------------|
-----------------------------------------------------------|
Guitar 2
---------------------|
---------------------|
---------------------|
-0-7-9-7-9-0-2-7-4---|
-0-7-9-7-9-0-2-7-4---|
-0-7-9-7-9-0-2-7-4---|

Chorus:
Guitar 1
-----------------------------------------------------------|
-5h7777--77555-5h7777--77555-------------------------------|
-----------------------------------------------------------| x4
-----------------------------------------------------------|
-----------------------------------------------------------|
-----------------------------------------------------------|
Guitar 2
-----------------------------------------------------------|
-----------------------------------------------------------|
-----------------------------------------------------------| x2
-4--44--4--44--420--00--0--00--024-------------------------|
-4--44--4--44--420--00--0--00--024-------------------------|
-4--44--4--44--420--00--0--00--024-------------------------|
Tap to rate this tab
 
# A B C D E F G H I J K L M N O P Q R S T U V W X Y Z