Song name
# A B C D E F G H I J K L M N O P Q R S T U V W X Y Z

Anberlin - You Belong Here tab

Song: You Belong Here
Band: Anberlin
Album: Dark Is The Way, Light Is A Place

Tuning Drop D (DADGBe)

Guitar 1
e|-------------------------------------------------------------------|
B|-11--11--11--11--13--13--13--10---11--11--11--11--10--10--10--10---|
G|---10--10--10--10--10--10--10--10---10--10--10--10--10--10--10--10-|
D|-------------------------------------------------------------------| x2
A|-------------------------------------------------------------------|
D|-------------------------------------------------------------------|

Guitar 2
e|---------------------------------|
B|---------------------------------|
G|---------8-8-8-8-----------------|
D|-8-8-8-8-8-8-8-8-5-5-5-5-1-1-1-1-| x2
A|-8-8-8-8-6-6-6-6-5-5-5-5-1-1-1-1-|
D|-8-8-8-8---------5-5-5-5-1-1-1-1-|

Tap to rate this tab
 
# A B C D E F G H I J K L M N O P Q R S T U V W X Y Z