Anberlin - Readyfuels tab

-------------------------------------------------------------------------------
			     Ready Fuels - Anberlin
-------------------------------------------------------------------------------
Tabbed by: Daarikon
Email: nick.wittman@hotmail.co.uk

Tuning: Drop D: D A D G B E
Intro

This is a really fun song to play. Fairly easy, but fun (Y)
 /=======x12==========\ /======x2======\
e|----------------------------------------|
B|----------------------------------------|
G|-----------------------7-7-7-7-7-7-7-7--|
D|-----------------------x-x-x-x-x-x-x-x--|
A|12---------10----------5-5-5-5-5-5-5-5--|
D|---0-10h12----12-10-0-------------------|
Verse
                             /1.====\ /2.====\
e|-----------------------------------------------|
B|-----------------------------------------------|
G|-------------------------------------7777777~--|
D|---------33333333-22222222-55555555-5xxxxxxx~--|
A|00000000-11111111-00000000-33333333-35555555~--|
D|00000000---------------------------------------|
P.M==================================

                              /1.====\  /2.=====\   /Play twice V2\
e|------------------------------------------------------------REST-|
B|------------------------------------------------------------REST-|
G|(7)------------------------------------7777777~----------.--REST-|
D|(x)--------33333333-22222222-55555555--xxxxxxx~-----0-00-0--REST-|
A|(5)0000000-11111111-00000000-33333333--5555555~----00-00-0--REST-|
D|---0000000-----------------------------------------00-00-0--REST-|
     P.M===============================

Chorus		
e|---------------------|--------------|--------------|---------------------|
B|---------------------|--------------|--------------|---------------------|
G|---------------------|--------------|--------------|---------------------|
D|10---10-10---10-10-10|--------------|--------------|10---10-10---10-10-10|
A|8----8--8----8--8--8-|10-1010-101010|12-1212-121212|8----8--8----8--8--8-|
D|8----8--8----8--8--8-|10-1010-101010|12-1212-121212|---------------------|

e|---------------------|--------------|--------|--------------------|
B|---------------------|--------------|--------|--------------------|
G|---------------------|--------------|9-99-999|10---10-10--10-10-10|
D|10---10-10---10-10-10|--------------|7-77-777|10---10-10--10-10-10|
A|8----8--8----8--8--8-|10-1010-101010|0-00-000|8----8--8---8--8--8-|
D|8----8--8----8--8--8-|10-1010-101010|0-00-000|--------------------|

e|---------------------|--------|--------|----------|-------|-------|
B|---------------------|--------|--------|----------|-------|-------|
G|---------------------|5-55-555|7-77-777|9-99101010|-------|-------|
D|10---10-10---10-10-10|x-xx-xxx|x-xx-xxx|x-xxx-x-x-|-------|-------|
A|8----8--8----8--8--8-|3-33-333|5-55-555|7-778-8-8-|x-x-x-x|x-x-x-x|
D|8----8--8----8--8--8-|--------|--------|----------|x-x-x-x|x-x-x-x|

Post-Chorus                     /========x8=========\
e|----------------|------------|---------------------|
B|----------------|------------|---------------------|
G|----------------|------------|---------------------|
D|----------------|------------|---------------------|
A|008-0---0---0-0-|----0--/8\--|12---------10--------|
D|008-0---0---0-0-|------------|---0-10h12----12-10-0|
  PM      PM===
Repeat Verse and Chorus

Bridge                              /1,3,4===========\ /2.=============\
e|----------------|----------------|--------------|---|-------------|---|
B|----------------|----------------|--------------|---|-------------|---|
G|10--10-------12-|-------------12-|12--12-10-10-9|(9)|12--12------9|(9)|
D|10--10--1010-10-|10--10--1010-10-|x---x--x--x--7|(7)|x---x--7--7-7|(7)|
A|8---8---8-8--8--|8---8---8-8--8--|10--10-8--8--0|(0)|10--10-8--8-0|(0)|
D|8---8---8-8--8--|8---8---8-8--8--|-------------0|(0)|-------7--7-0|(0)|

e|-----------------------------------------------------------------------------|
B|-----------------------------------------------------------------------------|
G|9-----10-----10------12------14-14-14-14-15-15-15-15-10--10--12--12----------|
D|7-----10-----10------x---x8--x--x--x--x--x--x--x--x--10--10--10--10---3p2----|
A|0-x16-7--x16-8--x16--10------12-12-12-12-13-13-13-13-7---8---8---10--------3-|
D|0-----7------8---------------------------------------7---8---8---10----------|

Chorus
e|---------------------|--------------|--------------|---------------------|
B|---------------------|--------------|--------------|---------------------|
G|---------------------|--------------|--------------|---------------------|
D|10---10-10---10-10-10|--------------|--------------|10---10-10---10-10-10|
A|8----8--8----8--8--8-|10-1010-101010|12-1212-121212|8----8--8----8--8--8-|
D|8----8--8----8--8--8-|10-1010-101010|12-1212-121212|---------------------|

e|---------------------|--------------|--------|--------------------|
B|---------------------|--------------|--------|--------------------|
G|---------------------|--------------|9-99-999|10---10-10--10-10-10|
D|10---10-10---10-10-10|--------------|7-77-777|10---10-10--10-10-10|
A|8----8--8----8--8--8-|10-1010-101010|0-00-000|8----8--8---8--8--8-|
D|8----8--8----8--8--8-|10-1010-101010|0-00-000|--------------------|

 /=============================x2==================\
e|---------------------|--------|--------|----------|
B|---------------------|--------|--------|----------|
G|---------------------|5-55-555|7-77-777|9-99101010|
D|10---10-10---10-10-10|x-xx-xxx|x-xx-xxx|x-xxx-x-x-|
A|8----8--8----8--8--8-|3-33-333|5-55-555|7-778-8-8-|
D|8----8--8----8--8--8-|--------|--------|----------|
	
e|---------------------|--------------|--------------|---------------------|
B|---------------------|--------------|--------------|---------------------|
G|---------------------|--------------|--------------|---------------------|
D|10---10-10---10-10-10|--------------|--------------|10---10-10---10-10-10|
A|8----8--8----8--8--8-|10-1010-101010|12-1212-121212|8----8--8----8--8--8-|
D|8----8--8----8--8--8-|10-1010-101010|12-1212-121212|---------------------|

e|---------------------|--------------|--------|--------------------|
B|---------------------|--------------|--------|--------------------|
G|---------------------|--------------|9-99-999|10---10-10--10-10-10|
D|10---10-10---10-10-10|--------------|7-77-777|10---10-10--10-10-10|
A|8----8--8----8--8--8-|10-1010-101010|0-00-000|8----8--8---8--8--8-|
D|8----8--8----8--8--8-|10-1010-101010|0-00-000|--------------------|

e|---------------------|--------|--------|----------|-------|-------|----------------|
B|---------------------|--------|--------|----------|-------|-------|----------------|
G|---------------------|5-55-555|7-77-777|9-99101010|-------|-------|----------------|
D|10---10-10---10-10-10|x-xx-xxx|x-xx-xxx|x-xxx-x-x-|-------|-------|----------------|
A|8----8--8----8--8--8-|3-33-333|5-55-555|7-778-8-8-|x-x-x-x|x-x-x-x|008-0---0---0-0-|
D|8----8--8----8--8--8-|--------|--------|----------|x-x-x-x|x-x-x-x|008-0---0---0-0-|
								     PM      PM===

As I get the time I will tab in the other guitar parts. But this is it for now (Y) 
E-mail or comment with corrections/criticism/praise/hate mail/death threats etc.
************************************

| /   slide up
| \   slide down
| h   hammer-on
| p   pull-off
| ~   vibrato
| +   harmonic
| x   Mute note
| b   Bend
| pb  Pre-bend
| br  Bend release
| pbr Pre-bend release
| brb Bend release bend

************************************
Tap to rate this tab
 
# A B C D E F G H I J K L M N O P Q R S T U V W X Y Z