Song name
# A B C D E F G H I J K L M N O P Q R S T U V W X Y Z

Anberlin - Haight Street tab

e|----------------------------------------------------|
B|---------13------13---13-------13-------13----13----|
G|----9h10----10p9----9----10h12----12p10----10-------|
D|----------------------------------------------------|
A|----------------------------------------------------|
E|----------------------------------------------------|

e|---------------------------------------------------------------------8----------------|
B|-----------------------------------------------8----10----8---------------11----10----|
G|--------10----12--9~------9----9-10~-----10--------------------10---------------------|
D|----/10----10---------/10---10-------/10----10---10----10---10----10---10----10-------|
A|--------------------------------------------------------------------------------------|
E|--------------------------------------------------------------------------------------|

e|------------------------------------------------------------------------------------------------|
B|----/13-13-13--------------------------------11p10-------11p10-------13p10-------13p10----------|
G|--------------10~--10h12--12/14-14-14/15\14--------12p10-------12p10-------12p10-------12p10----|
D|--------------------------X-/X--X--X-/X-\X------------------------------------------------------|
A|--------------------------10/12-12-12/13\12-----------------------------------------------------|
E|------------------------------------------------------------------------------------------------|
                  
e|----------------------|
B|----------------------|
G|----9h10p9--7\5-5~----|
D|----------------------|
A|----------------------|
E|----------------------|
Tap to rate this tab
 
# A B C D E F G H I J K L M N O P Q R S T U V W X Y Z