Anberlin - Disappear tab

e|------------------------------------------------------------------------|
B|------------------------------------------------------------------------|
G|------------------------------------------------------------------------|
D|------------------------------------------------------------------------|
A|----5---3-5-----5---3-5-----0-0-0-1--5-1-3-5-1~--5-1-3-5-1~--0-0-0-1----|
D|------5-----5~----5-----5~----------------------------------------------|
                                                                        x2
e|---------------------------------------|
B|---------------------------------------|
G|---------------------------------------|
D|---------------------------------------|
A|----------3-3-3-1-1-------3-3-3-5-5----|
D|----0-0-0-----------3-3-3--------------|
Tap to rate this tab
 
# A B C D E F G H I J K L M N O P Q R S T U V W X Y Z