Anberlin - Godspeed tab

e|-------------------------------------------------------------------------|
B|------8---8--------6---6------6-------6---6----------4---4------4---4----|
G|--5-5---5---5--5-5---5---5--5---5---3---3---3-3--3-3---3---3--3---3------|
D|----------------------------------3--------------------------------------|
A|-------------------------------------------------------------------------|
E|-------------------------------------------------------------------------|

E|------------------------------------|
B|--4-3---6-3---4-3---6-3-------------|
G|------3-----3-----3-----3--8-8-8----|
D|---------------------------X-X-X----|
A|---------------------------6-6-6----|
E|------------------------------------|
Tap to rate this tab
 
# A B C D E F G H I J K L M N O P Q R S T U V W X Y Z