Song name
# A B C D E F G H I J K L M N O P Q R S T U V W X Y Z

Anberlin - Cadence tab

e|-----------------------------------------------------------------|
B|-----------------------------------------------------------------|
G|----------6-9-6~----------6-b8r6~--------------------------------|
D|----6h7h9-----------6h7h9----------9~--7~--6--6h7p6-------X-X----|
A|----------------------------------------------------7/9~--X-X----|
E|----------------------------------------------------------X-X----|

e|-----------------------------------------------------------------|
B|-----------------------------------------------------------------|
G|-----------------------------------------------------------------|
D|------6-7--------------------------------------------------------|
A|----9-----7-5~--4~--5~--7~--9~--7-9-11~--9-11-12~--12/14~-12~----|
E|-----------------------------------------------------------------|

e|--------------------------9----9-10-10b12r10-9----9~----|
B|-------------9-10-9-10-12---12-----------------12-------|
G|----/11-9-11--------------------------------------------|
D|--------------------------------------------------------|
A|--------------------------------------------------------|
E|--------------------------------------------------------|
Tap to rate this tab
 
# A B C D E F G H I J K L M N O P Q R S T U V W X Y Z