Anberlin - Readyfuels tab

e|-------------------------------------------------------------------------------------|
B|--------------------10~-------------------------------------------------------13~----|
G|----9-b10b9~------------9-10-12~--10~--9h10p9----9h10p9-----------9-b10p9~-10--------|
D|-------------12-10----------------------------12--------12-10-12~--------------------|
A|-------------------------------------------------------------------------------------|
E|-------------------------------------------------------------------------------------|

e|---------------------------------------------------------------------------|
B|----13-11-10----10-------13-------13--------13--------------13~------------|
G|-------------12----12b14----12b14----12b14-----------9~-10~-----12-14~-----|
D|-------------------------------------------------12~-----------------------|
A|---------------------------------------------------------------------------|
E|---------------------------------------------------------------------------|

e|-------------------------------------------------------|
B|----11p10-11p10-------11p10-11p10-------11p10----------|
G|----------------12p10--------------12p10------12p10----|
D|-------------------------------------------------------|
A|-------------------------------------------------------|
E|-------------------------------------------------------|

e|----13p10-12p10-------13p10-12p10-------13p10-12p10---------------------------|
B|----------------13p11-------------13p11-------------13p11-10h11-11b13-r11~----|
G|------------------------------------------------------------------------------|
D|------------------------------------------------------------------------------|
A|------------------------------------------------------------------------------|
E|------------------------------------------------------------------------------|

e|-------------18-------18-------18-------18--------------------|
B|----17-18b20----18b20----18b20----18b20----18b20r18-18b20~----|
G|--------------------------------------------------------------|
D|--------------------------------------------------------------|
A|--------------------------------------------------------------|
E|--------------------------------------------------------------|
Tap to rate this tab
 
# A B C D E F G H I J K L M N O P Q R S T U V W X Y Z