Song name
# A B C D E F G H I J K L M N O P Q R S T U V W X Y Z

Anberlin - A Day Late tab

This is a cool song, so I tabbed it. :) please rate and comment! Thanks!

The intro is harmonized
Lead
e|-------------------------------|
B|-------------------------------|
G|-------------------------------|
D|--44444444---------------------|
A|-----------22222222-44444444---|
E|-------------------------------|
    ........ ........ ........
rhythm 
e|-------------------------------|
B|-------------------------------|
G|-------------------------------|
D|--44444444-66666666------------|
A|-------------------------------|
E|--------------------55555555---|
    ........ ........ ........
of course you could play the two together like this
Lead+Rhythm Together 
e|--------------------------------|
B|--------------------------------|
G|--------------------------------|
D|--44444444-66666666-------------|
A|-----------22222222-444444444---|
E|--------------------555555555---|
    ........ ........ .........
you could play it like that if you don't mind the stretch

Verse
e|------------------------------|
B|------------------------------|
G|--44-44-66-66-66-22-22-22-22--| play twice
D|--44-44-66-66-66-22-22-22-22--|
A|--22-22-44-44-44-00-00-00-00--|
E|------------------------------|

cont.
e|--------0--------0---------0---------0-----|
B|----------0--------0---------0---------0---|
G|-------------------------------------------| play twice
D|----4---------6--------2----------2--------|
A|--2---2-----4---4----0---0------0---0------|
E|-------------------------------------------|

cont.
Rhythm
e|-------------------------------|
B|-------------------------------|
G|--44444444-666666666-22222222--| play twice
D|--44444444-666666666-22222222--|
A|--22222222-444444444-00000000--|
E|-------------------------------|
    ........ ......... ........
Lead
e|------------------------|
B|--4-----4-----4h5-------|
G|----4-----4-------4-----| repeat as needed
D|------6-----6-------6---|
A|------------------------|
E|------------------------|
    . . . . . .     . .
pre-chorus (only time will tell)

e|------------|
B|------------|
G|--44-4--2~--|
D|--44-4--2~--|
A|--22-2--0~--|
E|------------|

chorus
e|------------------------------------------|
B|------------------------------------------|
G|----------44444444-22222222--66-44-66-44--|
D|--2222222-44444444-22222222--66-44-66-44--|
A|--2222222-22222222-00000000--44-22-44-22--|
E|--0000000---------------------------------|

verse
e|-----------------------------------------|
B|----------------------------6------------|
G|--66-66-66-44-44-44-22~--8--8b9--6--4----| play twice
D|--66-66-66-44-44-44-22~------------------|
A|--44-44-44-22-22-22-00~------------------|
E|-----------------------------------------|
    .. .. .. .. .. .. . 

cont.
Rhythm
e|-------------------------------|
B|-------------------------------|
G|--44444444-666666666-22222222--| play twice
D|--44444444-666666666-22222222--|
A|--22222222-444444444-00000000--|
E|-------------------------------|
    ........ ......... ........
Lead
e|------------------------|
B|--4-----4-----4h5-------|
G|----4-----4-------4-----| repeat as needed
D|------6-----6-------6---|
A|------------------------|
E|------------------------|

"these thoughts of us together"
e|---------------|
B|---------------|
G|--2-4-6-4-999--|
D|--2-4-6-4-999--|
A|--0-2-4-2-777--|
E|---------------|

go back to the chorus

Bridge
e|----------------------|
B|----------------------|
G|--666-444-222-4444----|
D|--666-444-222-4444----|
A|--444-222-000-2222----|
E|----------------------|

cont. "my day late friend"
e|---------------------------------------|
B|---------------------------------------|
G|--66666666----------22222222--44-44-4~-|
D|--66666666-22222222-22222222--44-44-4~-|
A|--44444444-22222222-00000000--22-22-2~-|
E|-----------00000000--------------------|

then it gets softer
"so let me get this straight" it's harmonized again
lead
e|-------------------------------------------------------|
B|--5555555-7777-999-4444444-5555-77777--5~-----6--------|
G|-------------------------------------------8--8b9-6-4--|
D|-------------------------------------------------------|
A|-------------------------------------------------------|
E|-------------------------------------------------------|
    ....... .... ... ....... .... .....
lead cont.
e|-------------------------------------------------|
B|--5555555-777-999--12121212-10101010-999-777-5~--|
G|-------------------------------------------------|
D|-------------------------------------------------|
A|-------------------------------------------------|
E|-------------------------------------------------|
    ....... ... ... ......... ........ ... ... 
Rhythm
e|----------------------------------------------|
B|----------------------------------------------|
G|----------------------------------------------|
D|----------------------------------------------|
A|--4444-6666-7777-2222222--6666-7777-00000000--|
E|----------------------------------------------|
    .... .... .... .......  .... .... ...


Then you just go back to the chorus. Enjoy!
Tap to rate this tab
# A B C D E F G H I J K L M N O P Q R S T U V W X Y Z