Song name
# A B C D E F G H I J K L M N O P Q R S T U V W X Y Z

Anberlin - Breaking tab

-----------------------------------------------------------------------------
			     Breaking - Anberlin
-----------------------------------------------------------------------------
Tabbed by: stratotastic

Tuning: standard

Guitar 1:
e|----------------------------------------------------------------|
B|----------------------------------------------------------------|
G|----4-------4-------4-------4-------4-------4-------4-------4---|
D|----2-------2-------2-------2-------2-------2-------2-------2---|
A|4-4-----4-4-----0-0-----0-0-----2-2-----2-2-----4-4-----4-4-----|
E|----------------------------------------------------------------|
 |
e|----------------------------------------------------------------|
B|----------------------------------------------------------------|
G|----4-------4-------4-------4-------4-------4-------4-------4---|
D|----2-------2-------2-------2-------2-------2-------4-------4---|
A|4-4-----4-4-----0-0-----0-0-----2-2-----2-2-----2-2-----2-2-----|
E|----------------------------------------------------------------| x2

Guitar 2:
e|7---------------------------------------------------------------|
B|----------------5-----------7-9-7---------------9---------------|
G|----------------------------------------------------------------|
D|----------------------------------------------------------------|
A|----------------------------------------------------------------|
E|----------------------------------------------------------------|
 |
e|7---------------------------------------------------------------|
B|----------------5-----------7-9-7-------------------------------|
G|----------------------------------------------------------------|
D|----------------------------------------------------------------|
A|----------------------------------------------------------------| 1st time
E|----------------------------------------------------------------| only


Guitar 1:
e|----------------------------------------------------------------|
B|----------------------------------------------------------------|
G|----4-------4-------4-------4-------4-------4-------4-------4---|
D|----2-------2-------2-------2-------2-------2-------2-------2---|
A|4-4-----4-4-----0-0-----0-0-----2-2-----2-2-----4-4-----4-4-----|
E|----------------------------------------------------------------|
 |
e|--------------------------------------------------------4-4-4-4-|
B|----------------------------------------------------xxxx5-5-5-5-|
G|----4-------4-------4-------4-------4-------4-------xxxx6-6-6-6-|
D|----2-------2-------2-------2-------2-------2-------xxxx6-6-6-6-|
A|4-4-----4-4-----0-0-----0-0-----2-2-----2-2-----2-2-xxxx4-4-4-4-|
E|----------------------------------------------------------------|

Guitar 2:
e|----------------------------------------------------------------|
B|----------------------------------------------------------------|
G|--9-8-------------9-8-------------9-8-------------9-------------|
D|------11--------------7---------------9-------------9-----------|
A|----------------------------------------------------------------|
E|----------------------------------------------------------------|
 |
e|------------------------------------------------------4-4-4-4---|
B|--------------------------------------------------xxxx5-5-5-5---|
G|--9-8-------------9-8-------------9-8-------------xxxx6-6-6-6---|
D|------11--------------7---------------9-----------xxxx6-6-6-6---|
A|--------------------------------------------------xxxx4-4-4-4---|
E|----------------------------------------------------------------|


Guitars 1 and 2:
e|0---0-0-0-0-0-0-0-0-0-0-4-4-4-4-2---2-2-2-2-2-2-2-2-44444-4-4-4-|
B|0---0-0-0-0-0-0-0-0-0-0-5-5-5-5-2---2-2-2-2-2-2-2-2-55555-5-5-5-|
G|2---2-2-2-2-2-2-2-2-2-2-6-6-6-6-4---4-4-4-4-4-4-4-4-66666-6-6-6-|
D|2---2-2-2-2-2-2-2-2-2-2-6-6-6-6-4---4-4-4-4-4-4-4-4-66666-6-6-6-|
A|0---0-0-0-0-0-0-0-0-0-0-4-4-4-4-2---2-2-2-2-2-2-2-2-44444-4-4-4-|
E|----------------------------------------------------------------|
 |
e|0---0-0-0-0-0-0-0-0-0-0-4-4-4-4-2---2-2-2-2-2222----------------|
B|0---0-0-0-0-0-0-0-0-0-0-5-5-5-5-2---2-2-2-2-2222----------------|
G|2---2-2-2-2-2-2-2-2-2-2-6-6-6-6-4---4-4-4-4-4444----------------|
D|2---2-2-2-2-2-2-2-2-2-2-6-6-6-6-4---4-4-4-4-4444----------------|
A|0---0-0-0-0-0-0-0-0-0-0-4-4-4-4-2---2-2-2-2-2222----------------|
E|----------------------------------------------------------------|


Guitar 1:
e|4---4-4---4-4-4-0---0-0---0-0-0-2---2-2---2-2-2-44--4-4---4-4-4-|
B|5---5-5---5-5-5-0---0-0---0-0-0-2---2-2---2-2-2-55--5-5---5-5-5-|
G|6---6-6---6-6-6-2---2-2---2-2-2-4---4-4---4-4-4-66--6-6---6-6-6-|
D|6---6-6---6-6-6-2---2-2---2-2-2-4---4-4---4-4-4-66--6-6---6-6-6-|
A|4---4-4---4-4-4-0---0-0---0-0-0-2---2-2---2-2-2-44--4-4---4-4-4-|
E|----------------------------------------------------------------|
 |
e|4---4-4---4-4-4-0---0-0---0-0-0-2---2-2---2-2-2-2-2-2-2-2-2-2-2-|
B|5---5-5---5-5-5-0---0-0---0-0-0-2---2-2---2-2-2-2-2-2-2-2-2-2-2-|
G|6---6-6---6-6-6-2---2-2---2-2-2-4---4-4---4-4-4-4-4-4-4-4-4-4-4-|
D|6---6-6---6-6-6-2---2-2---2-2-2-4---4-4---4-4-4-4-4-4-4-4-4-4-4-|
A|4---4-4---4-4-4-0---0-0---0-0-0-2---2-2---2-2-2-2-2-2-2-2-2-2-2-|
E|----------------------------------------------------------------|

Guitar 2:
e|4---4-4---4-4-4-0---0-0---0-0-0-2---2-2---2-2-2-44--4-4---4-4-4-|
B|5---5-5---5-5-5-0---0-0---0-0-0-2---2-2---2-2-2-55--5-5---5-5-5-|
G|6---6-6---6-6-6-2---2-2---2-2-2-4---4-4---4-4-4-66--6-6---6-6-6-|
D|6---6-6---6-6-6-2---2-2---2-2-2-4---4-4---4-4-4-66--6-6---6-6-6-|
A|4---4-4---4-4-4-0---0-0---0-0-0-2---2-2---2-2-2-44--4-4---4-4-4-|
E|----------------------------------------------------------------|
 |
e|4---4-4---4-4-4-0---0-0---0-0-0-2---2-2---2-2-2-2-2-2-2---------|
B|5---5-5---5-5-5-0---0-0---0-0-0-2---2-2---2-2-2-2-2-2-2---------|
G|6---6-6---6-6-6-2---2-2---2-2-2-4---4-4---4-4-4-4-4-4-4---------|
D|6---6-6---6-6-6-2---2-2---2-2-2-4---4-4---4-4-4-4-4-4-4-7-6-4-6-|
A|4---4-4---4-4-4-0---0-0---0-0-0-2---2-2---2-2-2-2-2-2-2---------|
E|----------------------------------------------------------------|


Guitar 1:
e|4---4-4---4-4-4-0---0-0---0-0-0-2---2-2---2-2-2-----------------|
B|5---5-5---5-5-5-0---0-0---0-0-0-2---2-2---2-2-2-----------------|
G|6---6-6---6-6-6-2---2-2---2-2-2-4---4-4---4-4-4-4---4-4-4-4-4-4-|
D|6---6-6---6-6-6-2---2-2---2-2-2-4---4-4---4-4-4-2---2-2-2-2-2-2-|
A|4---4-4---4-4-4-0---0-0---0-0-0-2---2-2---2-2-2-2---2-2-1-1-1-1-|
E|----------------------------------------------------------------|
 |
e|4---4-4---4-4-4-0---0-0---0-0-0-2---2-2---2-2-2-2-2-2-2-2-2-2-2-|
B|5---5-5---5-5-5-0---0-0---0-0-0-2---2-2---2-2-2-2-2-2-2-2-2-2-2-|
G|6---6-6---6-6-6-2---2-2---2-2-2-4---4-4---4-4-4-4-4-4-4-4-4-4-4-|
D|6---6-6---6-6-6-2---2-2---2-2-2-4---4-4---4-4-4-4-4-4-4-4-4-4-4-|
A|4---4-4---4-4-4-0---0-0---0-0-0-2---2-2---2-2-2-2-2-2-2-2-2-2-2-|
E|----------------------------------------------------------------|

Guitar 2:
e|4---4-4---4-4-4-0---0-0---0-0-0-2---2-2---2-2-2-----------------|
B|5---5-5---5-5-5-0---0-0---0-0-0-2---2-2---2-2-2-----------------|
G|6---6-6---6-6-6-2---2-2---2-2-2-4---4-4---4-4-4-9---9-9-9-9-9-9-|
D|6---6-6---6-6-6-2---2-2---2-2-2-4---4-4---4-4-4-9---9-9-9-9-9-9-|
A|4---4-4---4-4-4-0---0-0---0-0-0-2---2-2---2-2-2-7---7-7-6-6-6-6-|
E|----------------------------------------------------------------|
 |
e|4---4-4---4-4-4-0---0-0---0-0-0-2---2-2---2-2-2-2-2-2-2-2-2-2-2-|
B|5---5-5---5-5-5-0---0-0---0-0-0-2---2-2---2-2-2-2-2-2-2-2-2-2-2-|
G|6---6-6---6-6-6-2---2-2---2-2-2-4---4-4---4-4-4-4-4-4-4-4-4-4-4-|
D|6---6-6---6-6-6-2---2-2---2-2-2-4---4-4---4-4-4-4-4-4-4-4-4-4-4-|
A|4---4-4---4-4-4-0---0-0---0-0-0-2---2-2---2-2-2-2-2-2-2-2-2-2-2-|
E|----------------------------------------------------------------|


Guitar 1:
e|----------------------------------------------------------------|
B|----------------------------------------------------------------|
G|----4-------4-------4-------4-------4-------4-------4-------4---|
D|----2-------2-------2-------2-------2-------2-------2-------2---|
A|4-4-----4-4-----0-0-----0-0-----2-2-----2-2-----4-4-----4-4-----|
E|----------------------------------------------------------------|
 |
e|----------------------------------------------------------------|
B|----------------------------------------------------------------|
G|----4-------4-------4-------4-------4-------4-------4-------4---|
D|----2-------2-------2-------2-------2-------2-------4-------4---|
A|4-4-----4-4-----0-0-----0-0-----2-2-----2-2-----2-2-----2-2-----|
E|----------------------------------------------------------------|


Guitar 1:
e|----------------------------------------------------------------|
B|----------------------------------------------------------------|
G|----4-------4-------4-------4-------4-------4-------4-------4---|
D|----2-------2-------2-------2-------2-------2-------2-------2---|
A|4-4-----4-4-----0-0-----0-0-----2-2-----2-2-----4-4-----4-4-----|
E|----------------------------------------------------------------|
 |
e|--------------------------------------------------------4-4-4-4-|
B|----------------------------------------------------xxxx5-5-5-5-|
G|----4-------4-------4-------4-------4-------4-------xxxx6-6-6-6-|
D|----2-------2-------2-------2-------2-------2-------xxxx6-6-6-6-|
A|4-4-----4-4-----0-0-----0-0-----2-2-----2-2-----2-2-xxxx4-4-4-4-|
E|----------------------------------------------------------------|

Guitar 2:
e|----------------------------------------------------------------|
B|----------------------------------------------------------------|
G|--9-8-------------9-8-------------9-8-------------9-------------|
D|------11--------------7---------------9-------------9-----------|
A|----------------------------------------------------------------|
E|----------------------------------------------------------------|
 |
e|------------------------------------------------------4-4-4-4---|
B|--------------------------------------------------xxxx5-5-5-5---|
G|--9-8-------------9-8-------------9-8-------------xxxx6-6-6-6---|
D|------11--------------7---------------9-----------xxxx6-6-6-6---|
A|--------------------------------------------------xxxx4-4-4-4---|
E|----------------------------------------------------------------|


Guitars 1 and 2:
e|0---0-0-0-0-0-0-0-0-0-0-4-4-4-4-2---2-2-2-2-2-2-2-2-44444-4-4-4-|
B|0---0-0-0-0-0-0-0-0-0-0-5-5-5-5-2---2-2-2-2-2-2-2-2-55555-5-5-5-|
G|2---2-2-2-2-2-2-2-2-2-2-6-6-6-6-4---4-4-4-4-4-4-4-4-66666-6-6-6-|
D|2---2-2-2-2-2-2-2-2-2-2-6-6-6-6-4---4-4-4-4-4-4-4-4-66666-6-6-6-|
A|0---0-0-0-0-0-0-0-0-0-0-4-4-4-4-2---2-2-2-2-2-2-2-2-44444-4-4-4-|
E|----------------------------------------------------------------|
 |
e|0---0-0-0-0-0-0-0-0-0-0-4-4-4-4-2---2-2-2-2-2-2-----------------|
B|0---0-0-0-0-0-0-0-0-0-0-5-5-5-5-2---2-2-2-2-2-2-----------------|
G|2---2-2-2-2-2-2-2-2-2-2-6-6-6-6-4---4-4-4-4-4-4-----------------|
D|2---2-2-2-2-2-2-2-2-2-2-6-6-6-6-4---4-4-4-4-4-4---------4h6p4h6-|
A|0---0-0-0-0-0-0-0-0-0-0-4-4-4-4-2---2-2-2-2-2-2-6h7p6h7---------|
E|----------------------------------------------------------------|


Guitar 1:
e|4---4-4---4-4-4-0---0-0---0-0-0-2---2-2---2-2-2-44--4-4---4-4-4-|
B|5---5-5---5-5-5-0---0-0---0-0-0-2---2-2---2-2-2-55--5-5---5-5-5-|
G|6---6-6---6-6-6-2---2-2---2-2-2-4---4-4---4-4-4-66--6-6---6-6-6-|
D|6---6-6---6-6-6-2---2-2---2-2-2-4---4-4---4-4-4-66--6-6---6-6-6-|
A|4---4-4---4-4-4-0---0-0---0-0-0-2---2-2---2-2-2-44--4-4---4-4-4-|
E|----------------------------------------------------------------|
 |
e|4---4-4---4-4-4-0---0-0---0-0-0-2---2-2---2-2-2-2-2-2-2-2-2-2-2-|
B|5---5-5---5-5-5-0---0-0---0-0-0-2---2-2---2-2-2-2-2-2-2-2-2-2-2-|
G|6---6-6---6-6-6-2---2-2---2-2-2-4---4-4---4-4-4-4-4-4-4-4-4-4-4-|
D|6---6-6---6-6-6-2---2-2---2-2-2-4---4-4---4-4-4-4-4-4-4-4-4-4-4-|
A|4---4-4---4-4-4-0---0-0---0-0-0-2---2-2---2-2-2-2-2-2-2-2-2-2-2-|
E|----------------------------------------------------------------|

Guitar 2:
e|4---4-4---4-4-4-0---0-0---0-0-0-2---2-2---2-2-2-44--4-4---4-4-4-|
B|5---5-5---5-5-5-0---0-0---0-0-0-2---2-2---2-2-2-55--5-5---5-5-5-|
G|6---6-6---6-6-6-2---2-2---2-2-2-4---4-4---4-4-4-66--6-6---6-6-6-|
D|6---6-6---6-6-6-2---2-2---2-2-2-4---4-4---4-4-4-66--6-6---6-6-6-|
A|4---4-4---4-4-4-0---0-0---0-0-0-2---2-2---2-2-2-44--4-4---4-4-4-|
E|----------------------------------------------------------------|
 |
e|4---4-4---4-4-4-0---0-0---0-0-0-2---2-2---2-2-2-2-2-2-2---------|
B|5---5-5---5-5-5-0---0-0---0-0-0-2---2-2---2-2-2-2-2-2-2---------|
G|6---6-6---6-6-6-2---2-2---2-2-2-4---4-4---4-4-4-4-4-4-4---------|
D|6---6-6---6-6-6-2---2-2---2-2-2-4---4-4---4-4-4-4-4-4-4-7-6-4-6-|
A|4---4-4---4-4-4-0---0-0---0-0-0-2---2-2---2-2-2-2-2-2-2---------|
E|----------------------------------------------------------------|


Guitar 1:
e|4---4-4---4-4-4-0---0-0---0-0-0-2---2-2---2-2-2-----------------|
B|5---5-5---5-5-5-0---0-0---0-0-0-2---2-2---2-2-2-----------------|
G|6---6-6---6-6-6-2---2-2---2-2-2-4---4-4---4-4-4-4---4-4-4-4-4-4-|
D|6---6-6---6-6-6-2---2-2---2-2-2-4---4-4---4-4-4-2---2-2-2-2-2-2-|
A|4---4-4---4-4-4-0---0-0---0-0-0-2---2-2---2-2-2-2---2-2-1-1-1-1-|
E|----------------------------------------------------------------|
 |
e|4---4-4---4-4-4-0---0-0---0-0-0-2---2-2---2-2-2-2-2-2-2-2-------|
B|5---5-5---5-5-5-0---0-0---0-0-0-2---2-2---2-2-2-2-2-2-2-2-------|
G|6---6-6---6-6-6-2---2-2---2-2-2-4---4-4---4-4-4-4-4-4-4-4-------|
D|6---6-6---6-6-6-2---2-2---2-2-2-4---4-4---4-4-4-4-4-4-4-4-------|
A|4---4-4---4-4-4-0---0-0---0-0-0-2---2-2---2-2-2-2-2-2-2-2-------|
E|----------------------------------------------------------------|

Guitar 2:
e|4---4-4---4-4-4-0---0-0---0-0-0-2---2-2---2-2-2-----------------|
B|5---5-5---5-5-5-0---0-0---0-0-0-2---2-2---2-2-2-----------------|
G|6---6-6---6-6-6-2---2-2---2-2-2-4---4-4---4-4-4-9---9-9-9-9-9-9-|
D|6---6-6---6-6-6-2---2-2---2-2-2-4---4-4---4-4-4-9---9-9-9-9-9-9-|
A|4---4-4---4-4-4-0---0-0---0-0-0-2---2-2---2-2-2-7---7-7-6-6-6-6-|
E|----------------------------------------------------------------|
 |
e|4---4-4---4-4-4-0---0-0---0-0-0-2---2-2---2-2-2-2-2-2-2-2-------|
B|5---5-5---5-5-5-0---0-0---0-0-0-2---2-2---2-2-2-2-2-2-2-2-------|
G|6---6-6---6-6-6-2---2-2---2-2-2-4---4-4---4-4-4-4-4-4-4-4-------|
D|6---6-6---6-6-6-2---2-2---2-2-2-4---4-4---4-4-4-4-4-4-4-4-------|
A|4---4-4---4-4-4-0---0-0---0-0-0-2---2-2---2-2-2-2-2-2-2-2-------|
E|----------------------------------------------------------------|


Guitars 1:
e|4-4-4-4-4-4-4-4-4-4-4-4-4-4-4---7-7-7-7-7-7-7-7-7-7-7-7-7-7-7-7-|
B|5-5-5-5-5-5-5-5-5-5-5-5-5-5-5---8-8-8-8-8-8-8-8-8-8-8-8-8-8-8-8-|
G|6-6-6-6-6-6-6-6-6-6-6-6-6-6-6---9-9-9-9-9-9-9-9-9-9-9-9-9-9-9-9-|
D|----------------------------------------------------------------|
A|----------------------------------------------------------------|
E|----------------------------------------------------------------|
 |
e|7-7-7-7-7-7-7-7-7-7-7-7-7-7-7-7-2-2-2-2-2-2-2-2-2-2-2-2-2-2-2-2-|
B|7-7-7-7-7-7-7-7-7-7-7-7-7-7-7-7-4-4-4-4-4-4-4-4-4-4-4-4-4-4-4-4-|
G|9-9-9-9-9-9-9-9-9-9-9-9-9-9-9-9-4-4-4-4-4-4-4-4-4-4-4-4-4-4-4-4-|
D|----------------------------------------------------------------|
A|----------------------------------------------------------------|
E|----------------------------------------------------------------| x2

Guitar 2:
e|4-4-4-4-4-4-4-4-4-4-4-4-4-4-4---7-7-7-7-7-7-7-7-7-7-7-7-7-7-7-7-|
B|5-5-5-5-5-5-5-5-5-5-5-5-5-5-5---8-8-8-8-8-8-8-8-8-8-8-8-8-8-8-8-|
G|6-6-6-6-6-6-6-6-6-6-6-6-6-6-6---9-9-9-9-9-9-9-9-9-9-9-9-9-9-9-9-|
D|----------------------------------------------------------------|
A|----------------------------------------------------------------|
E|----------------------------------------------------------------|
 |
e|7-7-7-7-7-7-7-7-7-7-7-7-7-7-7-7-7-7-7-7-7-7-7-7-7-7-7-7-7-7-7-7-|
B|7-7-7-7-7-7-7-7-7-7-7-7-7-7-7-7-7-7-7-7-7-7-7-7-7-7-7-7-7-7-7-7-|
G|9-9-9-9-9-9-9-9-9-9-9-9-9-9-9-9-8-8-8-8-8-8-8-8-8-8-8-8-8-8-8-8-|
D|----------------------------------------------------------------|
A|----------------------------------------------------------------|
E|----------------------------------------------------------------|

e|---------------------------------------------------------------------|
B|---------------------------------------------------------------------|
G|6-6-6-6-6-6-6-6-9-9-9-9-11-11-11-11-11-2-2-2-2-2-2-2-2-2-2-2-2-2-4/6\|
D|4-4-4-4-4-4-4-4-7-7-7-7-9--9--9--9--9--2-2-2-2-2-2-2-2-2-2-2-2-2-2/4\|
A|4-4-4-4-4-4-4-4-7-7-7-7-9--9--9--9--9--0-0-0-0-0-0-0-0-0-0-0-0-0-2/4\|
E|---------------------------------------------------------------------|
 |
e|--------------------------------------------------------------------------|
B|--------------------------------------------------------------------------|
G|4-4-4-4-4-4-4-4-4-4-4-4-4-4-4-4-11-11-11-11-11-11-11-11-11/13-13---11----6|
D|2-2-2-2-2-2-2-2-2-2-2-2-2-2-2-2-9--9--9--9--9--9--9--9--9-/11-11---9-----4|
A|2-2-2-2-2-2-2-2-2-2-2-2-2-2-2-2-9--9--9--9--9--9--9--9--9-/11-11---9-----4|
E|--------------------------------------------------------------------------|


Piano bit
e|----------------------------------------------------------------|
B|----------------------------------------------------------------|
G|4---------------------------------------------------------------|
D|----------------2-----------4-6-4---------------6---------------|
A|----------------------------------------------------------------|
E|----------------------------------------------------------------|
 |
e|----------------------------------------------------------------|
B|----------------------------------------------------------------|
G|4---------------------------------------------------------------|
D|----------------2-----------4-6-4-------------------------------|
A|----------------------------------------------------------------|
E|----------------------------------------------------------------|


Guitar 1:
e|4---4-4---4-4-4-0---0-0---0-0-0-2---2-2---2-2-2-44--4-4---4-4-4-|
B|5---5-5---5-5-5-0---0-0---0-0-0-2---2-2---2-2-2-55--5-5---5-5-5-|
G|6---6-6---6-6-6-2---2-2---2-2-2-4---4-4---4-4-4-66--6-6---6-6-6-|
D|6---6-6---6-6-6-2---2-2---2-2-2-4---4-4---4-4-4-66--6-6---6-6-6-|
A|4---4-4---4-4-4-0---0-0---0-0-0-2---2-2---2-2-2-44--4-4---4-4-4-|
E|----------------------------------------------------------------|
 |
e|4---4-4---4-4-4-0---0-0---0-0-0-2---2-2---2-2-2-2-2-2-2-2-2-2-2-|
B|5---5-5---5-5-5-0---0-0---0-0-0-2---2-2---2-2-2-2-2-2-2-2-2-2-2-|
G|6---6-6---6-6-6-2---2-2---2-2-2-4---4-4---4-4-4-4-4-4-4-4-4-4-4-|
D|6---6-6---6-6-6-2---2-2---2-2-2-4---4-4---4-4-4-4-4-4-4-4-4-4-4-|
A|4---4-4---4-4-4-0---0-0---0-0-0-2---2-2---2-2-2-2-2-2-2-2-2-2-2-|
E|----------------------------------------------------------------|

Guitar 2:
e|4---4-4---4-4-4-0---0-0---0-0-0-2---2-2---2-2-2-44--4-4---4-4-4-|
B|5---5-5---5-5-5-0---0-0---0-0-0-2---2-2---2-2-2-55--5-5---5-5-5-|
G|6---6-6---6-6-6-2---2-2---2-2-2-4---4-4---4-4-4-66--6-6---6-6-6-|
D|6---6-6---6-6-6-2---2-2---2-2-2-4---4-4---4-4-4-66--6-6---6-6-6-|
A|4---4-4---4-4-4-0---0-0---0-0-0-2---2-2---2-2-2-44--4-4---4-4-4-|
E|----------------------------------------------------------------|
 |
e|4---4-4---4-4-4-0---0-0---0-0-0-2---2-2---2-2-2-2-2-2-2---------|
B|5---5-5---5-5-5-0---0-0---0-0-0-2---2-2---2-2-2-2-2-2-2---------|
G|6---6-6---6-6-6-2---2-2---2-2-2-4---4-4---4-4-4-4-4-4-4---------|
D|6---6-6---6-6-6-2---2-2---2-2-2-4---4-4---4-4-4-4-4-4-4-7-6-4-6-|
A|4---4-4---4-4-4-0---0-0---0-0-0-2---2-2---2-2-2-2-2-2-2---------|
E|----------------------------------------------------------------|


Guitar 1:
e|4---4-4---4-4-4-0---0-0---0-0-0-2---2-2---2-2-2-44--4-4---4-4-4-|
B|5---5-5---5-5-5-0---0-0---0-0-0-2---2-2---2-2-2-55--5-5---5-5-5-|
G|6---6-6---6-6-6-2---2-2---2-2-2-4---4-4---4-4-4-66--6-6---6-6-6-|
D|6---6-6---6-6-6-2---2-2---2-2-2-4---4-4---4-4-4-66--6-6---6-6-6-|
A|4---4-4---4-4-4-0---0-0---0-0-0-2---2-2---2-2-2-44--4-4---4-4-4-|
E|----------------------------------------------------------------| 
 |
e|4---4-4---4-4-4-0---0-0---0-0-0-2---2-2---2-2-2-----------------|--end---|
B|5---5-5---5-5-5-0---0-0---0-0-0-2---2-2---2-2-2-----------------|---on---|
G|6---6-6---6-6-6-2---2-2---2-2-2-4---4-4---4-4-4-4---4-4-4-4-4-4-|--------|
D|6---6-6---6-6-6-2---2-2---2-2-2-4---4-4---4-4-4-2---2-2-2-2-2-2-|2-------|
A|4---4-4---4-4-4-0---0-0---0-0-0-2---2-2---2-2-2-2---2-2-1-1-1-1-|3-------|
E|----------------------------------------------------------------|--------|

Guitar 2:
e|4---4-4---4-4-4-0---0-0---0-0-0-2---2-2---2-2-2-44--4-4---4-4-4-|
B|5---5-5---5-5-5-0---0-0---0-0-0-2---2-2---2-2-2-55--5-5---5-5-5-|
G|6---6-6---6-6-6-2---2-2---2-2-2-4---4-4---4-4-4-66--6-6---6-6-6-|
D|6---6-6---6-6-6-2---2-2---2-2-2-4---4-4---4-4-4-66--6-6---6-6-6-|
A|4---4-4---4-4-4-0---0-0---0-0-0-2---2-2---2-2-2-44--4-4---4-4-4-|
E|----------------------------------------------------------------|
 |
e|4---4-4---4-4-4-0---0-0---0-0-0-2---2-2---2-2-2-----------------|--end---|
B|5---5-5---5-5-5-0---0-0---0-0-0-2---2-2---2-2-2-----------------|---on---|
G|6---6-6---6-6-6-2---2-2---2-2-2-4---4-4---4-4-4-9---9-9-9-9-9-9-|2-------|
D|6---6-6---6-6-6-2---2-2---2-2-2-4---4-4---4-4-4-9---9-9-9-9-9-9-|2-------|
A|4---4-4---4-4-4-0---0-0---0-0-0-2---2-2---2-2-2-7---7-7-6-6-6-6-|0-------|
E|----------------------------------------------------------------|--------|


************************************

| /   slide up
| \   slide down
| h   hammer-on
| p   pull-off

************************************
Tap to rate this tab
 
# A B C D E F G H I J K L M N O P Q R S T U V W X Y Z