Song name
# A B C D E F G H I J K L M N O P Q R S T U V W X Y Z

Anberlin - Breathe tab

-------------------------------------------------------------------------------
			     Breathe - Anberlin
-------------------------------------------------------------------------------
Tabbed by: danjosaid

Tuning: Standard (EADGBe)

There is distortion and I'm not sure but I put my gain right in the middle to not give
it a heavy feel. Play around with the settings

e|-------------------------------------------|
B|-------------------------------------------|
G|-9-8-6-------------------------------------|
D|--------9-7-6------------------6h7p6--7/9~-|
A|---------------9-7-7~-7~-7~h9--------------|
E|-------------------------------------------|

e|-------------------------------------------------------------------------|
B|---------------------------------------------------------------------12~-|
G|-9~/11~/13~/14~/16~--9~/11~/13~/14/13/11/9-9--16~--13b14-11/9-9--8h9-----|
D|-------------------------------------------------------------------------|
A|-------------------------------------------------------------------------|
E|-------------------------------------------------------------------------|

e|---------------------------------------------------------------|
B|-17-16------------12--17-16------------------------------------|
G|--------16~--8h9-------------16/18-16~--8h9/11/13/14-13-11/13~-|
D|---------------------------------------------------------------|
A|---------------------------------------------------------------|
E|---------------------------------------------------------------|

I transposed the solo from the other guys tab and saw the guitarist for Anberlin play
the solo. He plays the solo near the higher notes or the lower part of the neck of the
guitar. Plus, the other guy forgot to include sliding down in bewtween frets and vibrato 
to create a better sound
%110 sounds like the original! ENJOY!

************************************

| /   slide up
| \   slide down
| h   hammer-on
| p   pull-off
| ~   vibrato
| +   harmonic
| x   Mute note
| b   Bend
| pb  Pre-bend
| br  Bend release
| pbr Pre-bend release
| brb Bend release bend

************************************
Tap to rate this tab
# A B C D E F G H I J K L M N O P Q R S T U V W X Y Z