Song name
# A B C D E F G H I J K L M N O P Q R S T U V W X Y Z

Anberlin - Foreign Language tab

Anberlin - Foreign language

Tabbed By Ben Paine


Intro and Verse:

Guitar 1:

D B G A

-------------------------------------------------------|
-------------------------------------------------------|
---7--7-7-7--------------------------------------------|
---7--7-7-7---9--9-9-9---5--5-5-5---7--7-7-7-----------|
---5--5-5-5---9--9-9-9---5--5-5-5---7--7-7-7-----------|
--------------7--7-7-7---3--3-3-3---5--5-5-5-----------|

Guitar 2:

----------------------------------|
---7-------------7-----6---7---7--|
---7-7-7-7-7-7-7-7-7-7-7-7-7-7-7--| x2
----------------------------------|
----------------------------------|
----------------------------------|

----------------------------------|
-----------------7-----6---7---6--|
---7-7-7-7-7-7-7-7-7-7-7-7-7-7-7--|
----------------------------------|
----------------------------------|
----------------------------------|

----------------------------------|
-----------------6-----6---7---7--|
---7-7-7-7-7-7-7-7-7-7-7-7-7-7-7--|
----------------------------------|
----------------------------------|
----------------------------------|

Guitar 3:
This comes in on the second phrase of the intro and the start of each verse.

-------------------------------------------------------|
---15----15----15----15----15----15----15----15--------|
------14----14----14----14----14----14----14----14-----|
-------------------------------------------------------|
-------------------------------------------------------|
-------------------------------------------------------|


Solo:

-------5------5---5--------------|
-----------------------7b8r7-----|
---7--7-----7----7---------------| x2
---------------------------------|
---------------------------------|
---------------------------------|

-------5------5---5--------------|
-----------------------7b8r7--5--|
---7--7-----7----7---------------|
---------------------------------|
---------------------------------|
---------------------------------|

----------------------------------|
---/5---5---5--7b8r7--5-----------|
------7---7--------------7--------|
----------------------------------|
----------------------------------|
----------------------------------|


Chorus 1: (speak in foreign language, nothing i can translate...)

Guitar 1:

--------------------|
--------------------|
--------------------|
---2---5---5----5---|
---2---5---5----5---|
---0---2---3----3---|

Guitar 2:

--------------------|
--------------------|
---9---11--12---12--|
--------------------|
---7---9---10---10--|
--------------------|

Then back to verse.


Chorus 2: (speak in foreign language, nothing i can translate...)

Guitar 1:

------------------------------------------|
--------------------on-the-last-----------|
--------------------time,--play-----------|
---2---5---5----5---this--chord-->---7----|
---2---5---5----5--------------------7----|
---0---2---3----3--------------------5----|

Guitar 2:

------------------------------------------|
--------------------on-the-last-----------|
---9---11--12---12--time,--play------14---|
--------------------this--chord-->--------|
---7---9---10---10-------------------12---|
------------------------------------------|


Bridge: (where did we go wrong...)

-------------------|----------------------|
-------------------|----------------------|
---7---7-----------|---7---7--------------|
---7---7---9---5---|---7---7---9---5-7----|
---5---4---9---5---|---5---4---9---5-7----|
-----------7---3---|-----------7---3-5----|

Back to Verse:
The solo also plays in the background.


Finish Chord:

-------|
-------|
-------|
---5---|
---5---|
---3---|
Tap to rate this tab
 
# A B C D E F G H I J K L M N O P Q R S T U V W X Y Z