Anberlin - Foreign Language tab

Foreign Language
 Anberlin
 Blueprints for the Blackmarket


Note that this tab is written in Dropped D tuning

 Intro
Pley intro 2 times then switch to verse 1

           PM ----------------------|     PM ---|   PM ----|   PM ----|
|---------------------------------------------------------------------|
|---------------------------------------------------------------------|
|---7----------------------------------7----------7----------7--------|
|---7----------------------------------7----------7----------7--------|
|---5----------5---5---5---5---5---5---5---5---5--5---5---5--5--5-----|
|---------------------------------------------------------------------|


           PM ----------------------|     PM ---|   PM ----|   PM ----|
|---------------------------------------------------------------------|
|---------------------------------------------------------------------|
|---4----------------------------------4----------4----------4--------|
|---4----------------------------------4----------4----------4--------|
|---2----------2---2---2---2---2---2---2---2---2--2---2---2--2--2-----|
|---------------------------------------------------------------------|
                                                                   


           PM ----------------------|     PM ---|   PM ----|   PM ----|
|---------------------------------------------------------------------|
|---------------------------------------------------------------------|
|---------------------------------------------------------------------|
|---5----------------------------------5----------5----------5--------|
|---5----------------------------------5----------5----------5--------|
|---5----------5---5---5---5---5---5---5---5---5--5---5---5--5--5-----|



           PM ----------------------|     PM ---|   PM ----|   PM ----|
|---------------------------------------------------------------------|
|---------------------------------------------------------------------|
|---------------------------------------------------------------------|
|---7----------------------------------7----------7----------7--------|
|---7----------------------------------7----------7----------7--------|
|---7----------7---7---7---7---7---7---7---7---7--7---7---7--7--7-----|


 verse 1:

           
|---------------------------------------------------------------------|
|---------------------------------------------------------------------|
|---7---7---7---7---7---7---7---7---7---7---7---7---7---7---7---------|
|---7---7---7---7---7---7---7---7---7---7---7---7---7---7---7---------|
|---5---5---5---5---5---5---5---5---5---5---5---5---5---5---5---------|
|---------------------------------------------------------------------|


           
|---------------------------------------------------------------------|
|---------------------------------------------------------------------|
|---4---4---4---4---4---4---4---4---4---4---4---4---4---4---4---------|
|---4---4---4---4---4---4---4---4---4---4---4---4---4---4---4---------|
|---2---2---2---2---2---2---2---2---2---2---2---2---2---2---2---------|
|---------------------------------------------------------------------|
                                                                   


          
|---------------------------------------------------------------------|
|---------------------------------------------------------------------|
|---------------------------------------------------------------------|
|---5---5---5---5---5---5---5---5---5---5---5---5---5---5---5---------|
|---5---5---5---5---5---5---5---5---5---5---5---5---5---5---5---------|
|---5---5---5---5---5---5---5---5---5---5---5---5---5---5---5---------|



           
|---------------------------------------------------------------------|
|---------------------------------------------------------------------|
|---------------------------------------------------------------------|
|---7---7---7---7---7---7---7---7---7---7---7---7---7---7---7---------|
|---7---7---7---7---7---7---7---7---7---7---7---7---7---7---7---------|
|---7---7---7---7---7---7---7---7---7---7---7---7---7---7---7---------|

2x brake:

           PM ----------------------|     PM ---|   PM ----|   PM ----|
|---------------------------------------------------------------------|
|---------------------------------------------------------------------|
|---7----------------------------------7----------7----------7--------|
|---7----------------------------------7----------7----------7--------|
|---5----------5---5---5---5---5---5---5---5---5--5---5---5--5--5-----|
|---------------------------------------------------------------------|


           PM ----------------------|     PM ---|   PM ----|   PM ----|
|---------------------------------------------------------------------|
|---------------------------------------------------------------------|
|---4----------------------------------4----------4----------4--------|
|---4----------------------------------4----------4----------4--------|
|---2----------2---2---2---2---2---2---2---2---2--2---2---2--2--2-----|
|---------------------------------------------------------------------|


|---------------------------------------------------------------------|
|---------------------------------------------------------------------|
|---------------------------------------------------------------------|
|---5---5---5---5---5---5---5---5---5---5---5---5---5---5---5---------|
|---5---5---5---5---5---5---5---5---5---5---5---5---5---5---5---------|
|---5---5---5---5---5---5---5---5---5---5---5---5---5---5---5---------|



           
|---------------------------------------------------------------------|
|---------------------------------------------------------------------|
|---------------------------------------------------------------------|
|---7---7---7---7---7---7---7---7---7---7---7---7---7---7---7---------|
|---7---7---7---7---7---7---7---7---7---7---7---7---7---7---7---------|
|---7---7---7---7---7---7---7---7---7---7---7---7---7---7---7---------|


2x Chorus:


           PM ----------------------|     PM ---|   PM -|   
|-----------------------------------------------------------|
|-----------------------------------------------------------|
|-----------------------------------------------------------|
|---2----------------------------------2----------2-------4-|
|---2----------------------------------2----------2-------4-|
|---2----------2---2---2---2---2---2---2---2---2--2---2---4-|


           PM ----------------------|     PM ---|   PM ----|   PM ----|
|---------------------------------------------------------------------|
|---------------------------------------------------------------------|
|---------------------------------------------------------------------|
|---5----------------------------------5----------5----------5--------|
|---5----------------------------------5----------5----------5--------|
|---5----------5---5---5---5---5---5---5---5---5--5---5---5--5--5-----|

   Brake:


           PM ----------------------|     PM ---|   PM -|   
|-----------------------------------------------------------|
|-----------------------------------------------------------|
|-----------------------------------------------------------|
|---2----------------------------------2----------2-------4-|
|---2----------------------------------2----------2-------4-|
|---2----------2---2---2---2---2---2---2---2---2--2---2---4-|


              
|---------------------------------------------------------------------|
|---------------------------------------------------------------------|
|---------------------------------------------------------------------|
|---5----------------------------------5------------------------------|
|---5----------------------------------5------------------------------|
|---5----------------------------------5------------------------------|


thats all you need to know 
lisen to the song and addapt your playing to it 


Tap to rate this tab
 
# A B C D E F G H I J K L M N O P Q R S T U V W X Y Z