Anberlin - Fin tab

-------------------------------------------------------------------------------
			     (*Fin) (Outro) - Anberlin
-------------------------------------------------------------------------------
Tabbed by: Blake P.

This is (*Fin), the last song on the album "Cities" by Anberlin. This tab only covers
about 6:00-the end of the song, and is really intended as an add on to this chord/tab: 
http://tabs.ultimate-guitar.com/a/anberlin/fin_crd.htm

Tuning:eBGDAE

e|------------------------------------------------------------------|
B|------------------------------------------------------------------|
G|------------------------------------------------------------------|
D|-------6--------2--2--2~--4--4--4~--6--6--6~--2--2--2~--4--4--4~--|
A|---4-------0------------------------------------------------------|
E|-----------5------------------------------------------------------|

e|------------------------------------------------------------------|
B|------------------------------------------------------------------|
G|------------------------------------------------------------------|
D|-------6--------2--2--2~--4--4--4~--6--6--6~--2--2--2~--4--4--4~--|
A|---4-------0------------------------------------------------------|
E|-----------5------------------------------------------------------|

e|--------------0-----------|
B|-----------------4--0-----|
G|-----------------------1--|
D|---2--1--2----------------|
A|--------------------------|
E|--------------------------|

This is repeated about 4 times, and then the song ends on an A2(002200).

Also, a minor note. I play this on an acoustic, so the notes played as groups of three
on the D string could just be played once if you're using an electric with distortion.

Hope you find this satisfactory.

************************************
| ~   vibrato
************************************
Tap to rate this tab
 
# A B C D E F G H I J K L M N O P Q R S T U V W X Y Z