Song name
# A B C D E F G H I J K L M N O P Q R S T U V W X Y Z

Anberlin - Down Acoustic tab

Anberlin- Down (Acoustic)
Album-Dark Is the Way, Light Is a Place


This is the version I tabbed.
http://www.youtube.com/watch?v=PWK7Ww9bIgQ

 
Intro

Guitar 1 
e|---7-     --2-     --0-     --3-     --|
B|---8-     --3-     --1-     --3-     --|
G|---9-(x5) --4-(x4) --0-(x5) --0-(x4) --|   
D|---9-     --4-     --2-     --0-     --| 
A|---7-     --2-     --3-     --2-     --|	
E|---7-     --2-     --0-     --3-     --|

 

e|---7-     --2-     --0-         
B|---8-     --3-     --1-     
G|---9-(x5) --4-(x4) --0-(x10)   
D|---9-     --4-     --2-         
A|---7-     --2-     --3-        	
E|---7-     --2-     --0-         



Guitar 2
e|---------------------------------------------|
B|--------8-7-7--------------------------------|
G|-------------9-9-7---------------------------|
D|---7h9---------------------------------------|
A|------------------7^9-5---7-9--7-9-----------|
E|---------------------------------------------|

e|--------------------------------------------|
B|--------8-7-7--------10-10/12 10---8-7------|     
G|--------------9-9-7--------------------9----|      
D|---7h9--------------------------------------|
A|--------------------------------------------|
E|--------------------------------------------|

                      Play Twice

Verse
Guitar 1: 
e|---3---3---3---3---|
B|---3---3---3---3---|
G|---0---2---0---2---|  
D|---2---0---2---0---|	
A|---2---0---3---0---|	
E|---0---2---x---3---|



e|---3---3---3--|
B|---3---3---3--|
G|---0---2---0--|
D|---2---0---2--|	
A|---2---0---3--|	
E|---0---2---x--|




Guitar 2: 
e|---3---3---3---3---|
B|---3---3---3---3---|
G|---0---2---0---2---|  
D|---2---0---2---0---|	 
A|---2---0---3---0---|	
E|---0---2---x---3---|



e|---3---3---3--|
B|---3---3---3--|
G|---0---2---0--|
D|---2---0---2--|	
A|---2---0---3--|	
E|---0---2---x--|


Chorus
Guitar 1: 
e|---3---3---3---3---|
B|---3---3---3---3---|
G|---0---2---0---2---|  
D|---2---0---2---0---|	
A|---2---0---3---0---|	
E|---0---2---x---3---|



e|---3---3---3--|
B|---3---3---3--|
G|---0---2---0--|
D|---2---0---2--|	
A|---2---0---3--|	
E|---0---2---x--|



Guitar 2
e|--10-       -10    -----------|
B|--10-       -12    -----------|
G|--12-(x9)   -12(x5)-----------|	
D|--xx-       -xx    -----------| Play throughout chorus except the last part where you 
A|--xx-       -xx    -----------|	would come in with the riff
E|--xx-       -xx    -----------|

   You caught me on my way,down 
   Please hold my hand before I drown 
   Tie my hands before I, burn this town 

Guitar 2: Riff
e|------------10-----------------------|
B|---------10----10----10--------------|  Play when he sings  
G|---11-12----------12----12-----------|  ‘You caught me...' 
D|-------------------------------------| x4
A|-------------------------------------|  
E|-------------------------------------| 
   You caught me on my way, down 


Verse
Guitar 1: 
e|---3---3---3---3---|
B|---3---3---3---3---|
G|---0---2---0---2---|  
D|---2---0---2---0---|	
A|---2---0---3---0---|	
E|---0---2---x---3---|



e|---3---3---3--|
B|---3---3---3--|
G|---0---2---0--|
D|---2---0---2--|	
A|---2---0---3--|	
E|---0---2---x--|


Guitar 1: 
e|---3---3---3---3---|
B|---3---3---3---3---|
G|---0---2---0---2---|  
D|---2---0---2---0---|	
A|---2---0---3---0---|	
E|---0---2---x---3---|



e|---3---3---3--|
B|---3---3---3--|
G|---0---2---0--|
D|---2---0---2--|	
A|---2---0---3--|	
E|---0---2---x--|




Chorus
Guitar 1: 
e|---3---3---3---3---|
B|---3---3---3---3---|
G|---0---2---0---2---|  
D|---2---0---2---0---|	
A|---2---0---3---0---|	
E|---0---2---x---3---|



e|---3---3---3--|
B|---3---3---3--|
G|---0---2---0--|
D|---2---0---2--|	
A|---2---0---3--|	
E|---0---2---x--|




Guitar 2
e|--10-       -10    -----------|
B|--10-       -12    -----------|
G|--12-(x9)   -12(x5)-----------|	
D|--xx-       -xx    -----------| 
A|--xx-       -xx    -----------|	
E|--xx-       -xx    -----------|

   You caught me on my way, down (honey honey)
   Please hold my hand before I drown 
   Tie my hands before I, burn this town 


Guitar 2: Riff
e|------------10-----------------------|
B|---------10----10----10--------------|    
G|---11-12----------12----12-----------|  
D|-------------------------------------| x4
A|-------------------------------------|  
E|-------------------------------------|




   You caught me on my way,down 


Guitar 1: 
e|---3---3---3---3---|
B|---3---3---3---3---|
G|---0---2---0---2---|  
D|---2---0---2---0---|	
A|---2---0---3---0---|	
E|---0---2---x---3---|



e|---3---3---3--|
B|---3---3---3--|
G|---0---2---0--|
D|---2---0---2--|	
A|---2---0---3--|	
E|---0---2---x--|



Guitar 2: Solo
e|-----------------------------------|
B|----------8-7----------------------|
G|--------------9--------------------|
D|---7h9-7--------7h9-7--------------|
A|----------------------9-10---5/7---|
E|-----------------------------------|

e|-----------------------------------------------------|
B|-----------8-7---8h10--10/12--10---8-7---------------|
G|---------------9-----------------------9-------------|
D|-----10-9--------------------------------------------|
A|-----------------------------------------------------|
E|-----------------------------------------------------|

e|------------------------------------------|
B|------------------------------------------|
G|----7-4-7-4-2/4----7-4--------------------|
D|-----------------------7-5-4/5------------|
A|------------------------------------------|
E|------------------------------------------|

e|-----------------------------------------------------------|
B|-----------------------------------------------------------|
G|--7-4-7-4-2/4-----7/9-9/11-11/12-12/14-14h16p14-12---------|
D|---------------------------------------------------14------|
A|-----------------------------------------------------------|
E|-----------------------------------------------------------|

Chorus
Guitar 1: 
e|---3---3---3---3---|
B|---3---3---3---3---|
G|---0---2---0---2---|  
D|---2---0---2---0---|	
A|---2---0---3---0---|	
E|---0---2---x---3---|



e|---3---3---3--|
B|---3---3---3--|
G|---0---2---0--|
D|---2---0---2--|	
A|---2---0---3--|	
E|---0---2---x--|



Guitar 2
e|--10-       -10    -----------|
B|--10-       -12    -----------|
G|--12-(x9)   -12(x5)-----------|	
D|--xx-       -xx    -----------| 
A|--xx-       -xx    -----------|	
E|--xx-       -xx    -----------|


   You caught me on my way, down (honey honey)
   Please hold my hand before I drown 
   Tie my hands before I, burn this town 

Guitar 2: Riff
e|------------10-----------------------|
B|---------10----10----10--------------|    
G|---11-12----------12----12-----------|  
D|-------------------------------------| x4
A|-------------------------------------|  
E|-------------------------------------|
   You caught me on my way, down 

Guitar 1: 
e|---3---3---3---3---|
B|---3---3---3---3---|
G|---0---2---0---2---|  
D|---2---0---2---0---|	
A|---2---0---3---0---|	
E|---0---2---x---3---|



e|---3---3---3--|
B|---3---3---3--|
G|---0---2---0--|
D|---2---0---2--|	
A|---2---0---3--|	
E|---0---2---x--|



Guitar 2
e|--10-       -10    -----------|
B|--10-       -12    -----------|
G|--12-(x9)   -12(x5)-----------|	
D|--xx-       -xx    -----------| 
A|--xx-       -xx    -----------|	
E|--xx-       -xx    -----------|


   You caught me on my way, down (honey honey)
   Please hold my hand before I drown 
   Tie my hands before I, burn this town 

Guitar 2: Riff
e|------------10-----------------------|
B|---------10----10----10--------------|    
G|---11-12----------12----12-----------|  
D|-------------------------------------| x4
A|-------------------------------------|  
E|-------------------------------------|

   You caught me on my way, down 
Tap to rate this tab
 
# A B C D E F G H I J K L M N O P Q R S T U V W X Y Z