Song name
# A B C D E F G H I J K L M N O P Q R S T U V W X Y Z

Anberlin - Mother tab

Alright, I noticed the tabs aren't fully complete on here so...yeah i finished it off 
complete with the little guitar solo before the final chorus
This is relative to CAPO 3

Mother (cover)

Verses:
e|----------------|
B|----------------|
G|----4----0----2-|
D|---4---------2--|
A|--2-----2---0---|
E|-------3--------|

Chorus:
e|-------------------------------|
B|-------------------------------|
G|-----0----2----4---4---2----0--|
D|---------2----4---4---2--------|
A|---2----0----2---2---0----2----|
E|--3----------------------3-----|

Solo:
e|--------------------------------------------------------|
B|-----------------------------------2p3/5--7p8p7-5-3-5-0-|
G|-2p4-4-2-0-0---2p4-4-2-0-0p2-0--4-----------------------|
D|--------------------------------------------------------|
A|--------------------------------------------------------|
E|--------------------------------------------------------|
Tap to rate this tab
# A B C D E F G H I J K L M N O P Q R S T U V W X Y Z