Song name
# A B C D E F G H I J K L M N O P Q R S T U V W X Y Z

Anberlin - Unwinding Cable Car tab

Hello!!!
My cousin showed my how to play the rhythm part for this song, then I figured
out the lead on my own. Email me with comments, questions, suggestions, or maybe
even requests at njbauch23@yahoo.com. God bless!

THE UNWINDING CABLE CAR
As recorded by Anberlin
(From the 2007 Album CITIES)

Music by Anberlin
Transcribed by njbauch22

        C#m7/E               Bsus4/E              Asus2/E
      0 4 6 6 0 0          0 2 4 4 0 0          0 0 2 2 0 0

Gtr I (E A D G B E) - 'Lead Guitar'
Gtr II (E A D G B E) - 'Rhythm Guitar'

 Intro
  Q=130
 4/4
  Gtr I
  W                 W                 E E E E E E Q     +W
|-----------------|-----------------|-----------------|--------------------|
|-----------------|-----------------|-------5-4-------|--------------------|
|-----------------|-----------------|-----------6-4---|-(4)----------------|
|-----------------|-----------------|---6-------------|--------------------|
|-----------------|-----------------|-4---4-----------|--------------------|
|-----------------|-----------------|-----------------|--------------------|
|
| Gtr II
| E E E E E E E E   E E E E E E E E   E E E E E E E E    E  E E E E E E E
|-0-------0-------|-0-------0-------|-0-------0-------|--0--------0--------|
|---4---4---4---4-|---4---4---4---4-|---4---4---4---4-|-----4---4---4---4--|
|-----6-------6---|-----6-------6---|-----6-------6---|-------6-------6----|
|-----------------|-----------------|-----------------|--------------------|
|-----------------|-----------------|-----------------|--------------------|
|-----------------|-----------------|-----------------|--------------------|


 4/4
  Q   E Q   E Q     Q   E Q   E Q     +W
|-----------------|-----------------|-------------------|
|-------------2---|-------------0---|-(0)---------------|
|-----------------|-----------------|-------------------|
|-------4---4-----|-------2---2-----|-------------------|
|-2---2-----------|-0---0-----------|-------------------|
|-----------------|-----------------|-------------------|
|
| E E E E E E E E   E E E E E E E E    E  E E E E E E E
|-0-------0-------|-0-------0-------|--0--------0-------|
|---4---4---4---4-|---4---4---4---4-|-----4---4---4---4-|
|-----6-------6---|-----6-------6---|-------6-------6---|
|-----------------|-----------------|-------------------|
|-----------------|-----------------|-------------------|
|-----------------|-----------------|-------------------|


  +Q.     E E E Q     +Q.   E E E Q
|-------------------|----------------|
|-(0)-----5-4-------|-------5-4------|
|-------------6-4---|-(4)-------6-4--|
|-------------------|----------------|
|-------------------|----------------|
|-------------------|----------------|
|
|  E  E E E E E E E    W
|--0--------0-------|--0-------------|
|-----4---4---4---4-|----------------|
|-------6-------6---|----------------|
|-------------------|----------------|
|-------------------|----------------|
|-------------------|----------------|


  C#m7/E        Bsus4/E                                  Asus2/E
  Gtr II
  Q   E E E E E E   +E  E E E E E E E    Q   E E E   E E E   +E  E E E E E E E
  |   | | | | | |    |  | | | | | | |    |   | | |   | | |    |  | | | | | | |
  /   / / / / / /    /  / / / / / / /    /   / / /   / / /    /  / / / / / / /

  Gtr I
  Q.    E E E Q     +E  Q   Q   E Q     +Q   Q   E a Q   E   +W
|-----------------|-------------------|--------------------|-------------------|
|-------5-4-------|-------------------|--------------------|-------------------|
|-----------6-4---|-(4)---------------|--------------------|-------------------|
|-----------------|---------4---4s6---|-(6)------4-4s6-----|-------------------|
|-----------------|-----7-------------|------7-----------4-|-(4)---------------|
|-----------------|-------------------|--------------------|-------------------|


  C#m7/E        Bsus4/E
  Gtr II
  Q   E E E E E E   +E  E E E E E E E
  |   | | | | | |    |  | | | | | | |
  /   / / / / / /    /  / / / / / / /

  Gtr I
  Q.    E E E Q     +E  Q   Q   E Q
|-----------------|-------------------|
|-------5-4-------|-------------------|
|-----------6-4---|-(4)---------------|
|-----------------|---------4---4s6---|
|-----------------|-----7-------------|
|-----------------|-------------------|


                   Asus2/E
   Q   E E E   E E E   +E  E E E E E E E
   |   | | |   | | |    |  | | | | | | |
   /   / / /   / / /    /  / / / / / / /

  +Q   Q   E a Q   E   +H        H
|--------------------|-------------------||
|--------------------|-------------------||
|--------------------|-------------------||
|-(6)------4-4s6-----|-------------------||
|------7-----------4-|-(4)s======2-------||
|--------------------|-------------------||


   Verse
    $
    C#m7/E       Bsus4/E
    Q  E E E E E E   +E  E E  E E E E E
    |  | | | | | |    |  | |  | | | | |
    /  / / / / / /    /  / /  / / / / /

    H      E E E E   +E  E H.
||-----------------|--------------------|
||o----------------|--------------------|
||-----------------|--------------------|
||---------------4-|-(4)-4s6------------|
||o----------4-7---|--------------------|
||-----------------|--------------------|


                 Asus2/E                 C#m7/E       Bsus4/E
  Q  E E E   E E E   +E  E E E E E E E   Q  E E E E E E
  |  | | |   | | |    |  | | | | | | |   |  | | | | | |
  /  / / /   / / /    /  / / / / / / /   /  / / / / / /

  Q  E E E a Q   E   +W                  H      E E E E
|------------------|-------------------|-------------------|
|------------------|-------------------|-------------------|
|------------------|-------------------|-------------------|
|--------4-4s6-----|-------------------|--------------4----|
|----4-7---------4-|-(4)---------------|----------4-7------|
|------------------|-------------------|-------------------|


                      1.
                                      Asus2/E
  +E  E E  E E E E E   Q  E E E   E E E
   |  | |  | | | | |   |  | | |   | | |
   /  / /  / / / / /   /  / / /   / / /

  +E  E H.             Q  E E E a Q   E
|--------------------|------------------|
|--------------------|------------------|
|--------------------|------------------|
|-(4)-4s6------------|--------4-4s6-----|
|--------------------|----4-7---------4-|
|--------------------|------------------|


                         2.
                                                    To Coda
                          Bsus4/E      Asus2/E
  +E  E E E  E  E E E     Q  E E E E E E   +E  E E E E E E E
   |  | | |  |  | | |     |  | | | | | |    |  | | | | | | |
   /  / / /  /  / / /     /  / / / / / /    /  / / / / / / /

  +Q.     E +H            Q  Q   E Q   E   +Q.     E H
|----------------------||----------------|-------------------||
|---------------------o||----------------|-------------------||
|----------------------||----------------|-------------------||
|----------------------||----2---2s4---2-|-(2)---------------||
|-(4)-----2-(2)-------o||----------------|---------6-4-------||
|----------------------||----------------|-------------------||


 Chorus
  C#m7/E        Bsus4/E                                  Asus2/E
  Q   E E E E E E   +E  E E E E E E E    Q   E E E   E E E   +E  E E E E E E E
  |   | | | | | |    |  | | | | | | |    |   | | |   | | |    |  | | | | | | |
  /   / / / / / /    /  / / / / / / /    /   / / /   / / /    /  / / / / / / /

  Q.    E E E Q     +E  Q   Q   E Q     +Q   Q   E a Q   E   +W
|-----------------|-------------------|--------------------|-------------------|
|-------5-4-------|-------------------|--------------------|-------------------|
|-----------6-4---|-(4)---------------|--------------------|-------------------|
|-----------------|---------4---4s6---|-(6)------4-4s6-----|-------------------|
|-----------------|-----7-------------|------7-----------4-|-(4)---------------|
|-----------------|-------------------|--------------------|-------------------|


  C#m7/E        Bsus4/E
  Q   E E E E E E   +E  E E E E E E E
  |   | | | | | |    |  | | | | | | |
  /   / / / / / /    /  / / / / / / /

  Q.    E E E Q     +E  Q   Q   E Q
|-----------------|-------------------|
|-------5-4-------|-------------------|
|-----------6-4---|-(4)---------------|
|-----------------|---------4---4s6---|
|-----------------|-----7-------------|
|-----------------|-------------------|


                   Asus2/E
   Q   E E E   E E E   +E  E E E  E  E E E
   |   | | |   | | |    |  | | |  |  | | |
   /   / / /   / / /    /  / / /  /  / / /

  +Q   Q   E a Q   E   +Q.     E +H
|--------------------|---------------------||
|--------------------|---------------------||
|--------------------|---------------------||
|-(6)------4-4s6-----|---------------------||
|------7-----------4-|-(4)-----2-(2)-------||
|--------------------|---------------------||


 Interlude
  C#m7/E        Bsus4/E                                  Asus2/E
  Q   E E E E E E   +E  E E E E E E E    Q   E E E   E E E   +E  E E E E E E E
  |   | | | | | |    |  | | | | | | |    |   | | |   | | |    |  | | | | | | |
  /   / / / / / /    /  / / / / / / /    /   / / /   / / /    /  / / / / / / /

  Q.    E E E Q     +E  Q   Q   E Q     +Q   Q   E a Q   E   +W
|-----------------|-------------------|--------------------|-------------------|
|-------5-4-------|-------------------|--------------------|-------------------|
|-----------6-4---|-(4)---------------|--------------------|-------------------|
|-----------------|---------4---4s6---|-(6)------4-4s6-----|-------------------|
|-----------------|-----7-------------|------7-----------4-|-(4)---------------|
|-----------------|-------------------|--------------------|-------------------|


  C#m7/E        Bsus4/E
  Q   E E E E E E   +E  E E E E E E E
  |   | | | | | |    |  | | | | | | |
  /   / / / / / /    /  / / / / / / /

  Q.    E E E Q     +E  Q   Q   E Q
|-----------------|-------------------|
|-------5-4-------|-------------------|
|-----------6-4---|-(4)---------------|
|-----------------|---------4---4s6---|
|-----------------|-----7-------------|
|-----------------|-------------------|


                             D.S. al Coda
                   Asus2/E
   Q   E E E   E E E   +E  E E E  E  E E E
   |   | | |   | | |    |  | | |  |  | | |
   /   / / /   / / /    /  / / /  /  / / /

  +Q   Q   E a Q   E   +Q.     E +H
|--------------------|---------------------||
|--------------------|---------------------||
|--------------------|---------4-(4)-------||
|-(6)------4-4s6-----|---------------------||
|------7-----------4-|-(4)-----------------||
|--------------------|---------------------||


   Chorus
    &
    C#m7/E        Bsus4/E
    Q   E E E E E E   +E  E E E E E E E
    |   | | | | | |    |  | | | | | | |
    /   / / / / / /    /  / / / / / / /

    Q.    E E E Q     +E  Q   Q   E Q
||------------------|-------------------|
||o-------5-4-------|-------------------|
||------------6-4---|-(4)---------------|
||------------------|---------4---4s6---|
||o-----------------|-----7-------------|
||------------------|-------------------|


                   Asus2/E
   Q   E E E   E E E   +E  E E E E E E E
   |   | | |   | | |    |  | | | | | | |
   /   / / /   / / /    /  / / / / / / /

  +Q   Q   E a Q   E   +W
|--------------------|--------------------|
|--------------------|--------------------|
|--------------------|--------------------|
|-(6)------4-4s6-----|--------------------|
|------7-----------4-|-(4)----------------|
|--------------------|--------------------|


  C#m7/E        Bsus4/E
  Q   E E E E E E   +E  E E E E E E E
  |   | | | | | |    |  | | | | | | |
  /   / / / / / /    /  / / / / / / /

  Q.    E E E Q     +E  Q   Q   E Q
|-----------------|-------------------|
|-------5-4-------|-------------------|
|-----------6-4---|-(4)---------------|
|-----------------|---------4---4s6---|
|-----------------|-----7-------------|
|-----------------|-------------------|


                   Asus2/E
   Q   E E E   E E E   +E  E E E  E  E E E
   |   | | |   | | |    |  | | |  |  | | |
   /   / / /   / / /    /  / / /  /  / / /

  +Q   Q   E a Q   E   +Q.     E +H
|--------------------|----------------------||
|--------------------|---------------------o||
|--------------------|----------------------||
|-(6)------4-4s6-----|----------------------||
|------7-----------4-|-(4)-----2-(2)-------o||
|--------------------|----------------------||


   Bridge
    Asus2/E
    E E E E E E E E    E  E E E E E E E
    | | | | | | | |    |  | | | | | | |
    / / / / / / / /    /  / / / / / / /

    E E E Q   E E E   +E  E E Q   E E E
||--------0-------0-|-(0)-----0-------0-|
||o-----0-------0---|-------0-------0---|
||----2-------2-----|-----2-------2-----|
||------------------|-------------------|
||o-----------------|-------------------|
||------------------|-------------------|


  C#m7/E
   E  E E E E E E E    E  E E E E E E E
   |  | | | | | | |    |  | | | | | | |
   /  / / / / / / /    /  / / / / / / /

  +E  E E Q   E E E   +E  E E Q   E E E
|-(0)-----2-------2-|-(2)-----2-------2-|
|-------0-------0---|-------0-------0---|
|-----2-------2-----|-----2-------2-----|
|-------------------|-------------------|
|-------------------|-------------------|
|-------------------|-------------------|


  Asus2/E
   E  E E E E E E E    E  E E E E E E E
   |  | | | | | | |    |  | | | | | | |
   /  / / / / / / /    /  / / / / / / /

  +E  E E Q   E E E   +E  E E Q   E E E
|-(2)-----0-------0-|-(0)-----0-------0-|
|-------0-------0---|-------0-------0---|
|-----2-------2-----|-----2-------2-----|
|-------------------|-------------------|
|-------------------|-------------------|
|-------------------|-------------------|


  Bsus4/E
   E  E E E E E E E    E  E E E E E E E
   |  | | | | | | |    |  | | | | | | |
   /  / / / / / / /    /  / / / / / / /

  +E  E E Q   E E E   +E  E E Q   E E E   3x
|-(0)-----7-------7-|-(7)-----7-------7---||
|-------------------|--------------------o||
|-----8-9-----8-9---|-----8-9-----8-9-----||
|-------------------|---------------------||
|-------------------|--------------------o||
|-------------------|---------------------||


 Interlude
  +Q.   E E E Q    +E  Q  Q  E Q    +Q   Q  E a Q  E   +W
|-(7)------------|----------------|------------------|--------|
|-------5-4------|----------------|------------------|--------|
|-----------6-4--|-(4)------------|------------------|--------|
|----------------|--------4--4s6--|-(6)-----4-4s6----|--------|
|----------------|-----7----------|------7---------4-|-(4)----|
|----------------|----------------|------------------|--------|


  Q.   E E E Q    +E  Q  Q  E Q    +Q   Q  E a Q  E   +Q.   E +H
|---------------|----------------|------------------|----------------||
|------5-4------|----------------|------------------|----------------||
|----------6-4--|-(4)------------|------------------|----------------||
|---------------|--------4--4s6--|-(6)-----4-4s6----|----------------||
|---------------|-----7----------|------7---------4-|-(4)s==2-(2)----||
|---------------|----------------|------------------|----------------||


   Chorus
    C#m7/E        Bsus4/E
    Q   E E E E E E   +E  E E E E E E E
    |   | | | | | |    |  | | | | | | |
    /   / / / / / /    /  / / / / / / /

    Q.    E E E Q     +E  Q   Q   E Q
||------------------|-------------------|
||o-------5-4-------|-------------------|
||------------6-4---|-(4)---------------|
||------------------|---------4---4s6---|
||o-----------------|-----7-------------|
||------------------|-------------------|


                   Asus2/E
   Q   E E E   E E E   +E  E E E E E E E
   |   | | |   | | |    |  | | | | | | |
   /   / / /   / / /    /  / / / / / / /

  +Q   Q   E a Q   E   +W
|--------------------|--------------------|
|--------------------|--------------------|
|--------------------|--------------------|
|-(6)------4-4s6-----|--------------------|
|------7-----------4-|-(4)----------------|
|--------------------|--------------------|


  C#m7/E        Bsus4/E
  Q   E E E E E E   +E  E E E E E E E
  |   | | | | | |    |  | | | | | | |
  /   / / / / / /    /  / / / / / / /

  Q.    E E E Q     +E  Q   Q   E Q
|-----------------|-------------------|
|-------5-4-------|-------------------|
|-----------6-4---|-(4)---------------|
|-----------------|---------4---4s6---|
|-----------------|-----7-------------|
|-----------------|-------------------|


                   Asus2/E
   Q   E E E   E E E   +E  E E E  E  E E E
   |   | | |   | | |    |  | | |  |  | | |
   /   / / /   / / /    /  / / /  /  / / /

  +Q   Q   E a Q   E   +Q.     E +H
|--------------------|----------------------||
|--------------------|---------------------o||
|--------------------|----------------------||
|-(6)------4-4s6-----|----------------------||
|------7-----------4-|-(4)-----2-(2)-------o||
|--------------------|----------------------||


 Outro
  Asus2/E                               C#m7/E
  E E E E E E E E    E  E E E E E E E    E  E E E E E E E    E  E E E E E E E
  | | | | | | | |    |  | | | | | | |    |  | | | | | | |    |  | | | | | | |
  / / / / / / / /    /  / / / / / / /    /  / / / / / / /    /  / / / / / / /

  E E E Q   E E E   +E  E E Q   E E E   +E  E E Q   E E E   +E  E E Q   E E E
|-------0-------0-|-(0)-----0-------0-|-(0)-----2-------2-|-(2)-----2-------2--|
|-----0-------0---|-------0-------0---|-------0-------0---|-------0-------0----|
|---2-------2-----|-----2-------2-----|-----2-------2-----|-----2-------2------|
|-----------------|-------------------|-------------------|--------------------|
|-----------------|-------------------|-------------------|--------------------|
|-----------------|-------------------|-------------------|--------------------|


  Asus2/E
   E  E E E E E E E    E  E E E E E E E
   |  | | | | | | |    |  | | | | | | |
   /  / / / / / / /    /  / / / / / / /

  +E  E E Q   E E E   +E  E E Q   E E E
|-(2)-----0-------0-|-(0)-----0-------0-|
|-------0-------0---|-------0-------0---|
|-----2-------2-----|-----2-------2-----|
|-------------------|-------------------|
|-------------------|-------------------|
|-------------------|-------------------|


  Bsus4/E
   E  E E E E E E E    E  E E E E E E E
   |  | | | | | | |    |  | | | | | | |
   /  / / / / / / /    /  / / / / / / /

  +E  E E Q   E E E   +E  E E Q   E E E
|-(0)-----7-------7-|-(7)-----7-------7--*|
|-------------------|--------------------*|
|-----8-9-----8-9---|-----8-9-----8-9----*|
|-------------------|--------------------*|
|-------------------|--------------------*|
|-------------------|--------------------*|


Duration Legend
---------------
W - whole; H - half; Q - quarter; E - 8th; a - acciaccatura; + - note tied to previous;
. - note dotted; Duration letters will always appear directly above the note/fret number
it represents the duration for; Duration letters with no fret number below them represent
rests

Tablature Legend
----------------
 s   - legato slide

Misc Legend
-----------
 |  - bar
||  - double bar
||o - repeat start
o|| - repeat end
*|  - double bar (ending)
 $  - Segno
 &  - Coda
Tap to rate this tab
# A B C D E F G H I J K L M N O P Q R S T U V W X Y Z