Song name
# A B C D E F G H I J K L M N O P Q R S T U V W X Y Z

Anberlin - To The Wolves tab

e|-----------------------------------------------------------------------------------------------|
B|-------------17~---------------------------------------17--17b19-17b19-17b19-17b19-17b19-17b19-|
G|----18-14-16------------18-14-16-------------18-14-16------------------------------------------|
D|-16------------------16----------14~-----16----------------------------------------------------|
A|-----------------------------------------------------------------------------------------------|
E|-----------------------------------------------------------------------------------------------|

e|------------------------------------------------------------------|
B|-------------17~---------------------------------------17--17b19--|
G|----18-14-16------------18-14-16-------------18-14-16-------------|
D|-16------------------16----------14~-----16-----------------------|
A|------------------------------------------------------------------|
E|------------------------------------------------------------------|


or


e|-------------12~-------------------------------------12--12b14-12b14-12b14-12b14-12b14-12b14---|
B|----14-10-12------------14-10-12------------14-10-12-------------------------------------------|
G|-11------------------11----------9~------11----------------------------------------------------|
D|-----------------------------------------------------------------------------------------------|
A|-----------------------------------------------------------------------------------------------|
E|-----------------------------------------------------------------------------------------------|


e|-------------12~-------------------------------------12--12b14~-----------------------------|
B|----14-10-12------------14-10-12------------14-10-12----------------------------------------|
G|-11------------------11----------9~------11-------------------------------------------------|
D|--------------------------------------------------------------------------------------------|
A|--------------------------------------------------------------------------------------------|
E|--------------------------------------------------------------------------------------------|
Tap to rate this tab
# A B C D E F G H I J K L M N O P Q R S T U V W X Y Z