Song name
# A B C D E F G H I J K L M N O P Q R S T U V W X Y Z

Anberlin - Enjoy The Silence tab

Rhythm guitar Tab

Intro
|-8---------8------------------------------|
|---------------------11---------11--------|
|------8---------8----------8----------8---| X 4
|---10---10---10---10----10---10----10---10|
|------------------------------------------|
|------------------------------------------|

|----------------------------------------|
|----------------------------------------|
|-------------------------8-8-8-8-8-8-8-8| X 4
|-10-10-10-10-10-10-10-10-8-8-8-8-8-8-8-8|
|-10-10-10-10-10-10-10-10-6-6-6-6-6-6-6-6|
|-8--8--8--8--8--8--8--8-----------------|

No Rhythm guitar for the Verses

Chorus
|-----------------------------------------------------------------|
|-----------------------------------------------------------------|
|---------------------------------5-5-5-5-5-5-5-5-3-3-3-3-3-3-3-3-|
|-3-3-3-3-3-3-3-3-6-6-6-6-6-6-6-6-5-5-5-5-5-5-5-5-3-3-3-3-3-3-3-3-|
|-3-3-3-3-3-3-3-3-6-6-6-6-6-6-6-6-3-3-3-3-3-3-3-3-1-1-1-1-1-1-1-1-|
|-1-1-1-1-1-1-1-1-4-4-4-4-4-4-4-4---------------------------------|

|--------------------------------------------------------------------------|
|--------------------------------------------------------------------------|
|---------------------------------5-5-5-5-5-5-5-5-4-4-4-4-4-4-4-4-4-4-4-4-4|
|-3-3-3-3-3-3-3-3-6-6-6-6-6-6-6-6-5-5-5-5-5-5-5-5-4-4-4-4-4-4-4-4-4-4-4-4-4|
|-3-3-3-3-3-3-3-3-6-6-6-6-6-6-6-6-3-3-3-3-3-3-3-3-2-2-2-2-2-2-2-2-2-2-2-2-2|
|-1-1-1-1-1-1-1-1-4-4-4-4-4-4-4-4------------------------------------------|

Chorus 2
|-----------------------------------------------------------------|
|-----------------------------------------------------------------|
|---------------------------------5-5-5-5-5-5-5-5-3-3-3-3-3-3-3-3-|
|-3-3-3-3-3-3-3-3-6-6-6-6-6-6-6-6-5-5-5-5-5-5-5-5-3-3-3-3-3-3-3-3-|
|-3-3-3-3-3-3-3-3-6-6-6-6-6-6-6-6-3-3-3-3-3-3-3-3-1-1-1-1-1-1-1-1-|
|-1-1-1-1-1-1-1-1-4-4-4-4-4-4-4-4---------------------------------|

|--------------------------------------------------------------------------------|
|--------------------------------------------------------------------------------|
|---------------------------------5-5-5-5-5-5-5-5-4-4-4-4-4-4-4-4-4-4-4-4-4-4-4-4|
|-3-3-3-3-3-3-3-3-6-6-6-6-6-6-6-6-5-5-5-5-5-5-5-5-4-4-4-4-4-4-4-4-4-4-4-4-4-4-4-4|
|-3-3-3-3-3-3-3-3-6-6-6-6-6-6-6-6-3-3-3-3-3-3-3-3-2-2-2-2-2-2-2-2-2-2-2-2-2-2-2-2|
|-1-1-1-1-1-1-1-1-4-4-4-4-4-4-4-4------------------------------------------------|

|--------------------------------------------------------------------------------|
|--------------------------------------------------------------------------------|
|-10-10-10-10-10-10-10-10-13-13-13-13-13-13-13-13-5-5-5-5-5-5-5-5-3-3-3-3-3-3-3-3| X 2
|-10-10-10-10-10-10-10-10-13-13-13-13-13-13-13-13-5-5-5-5-5-5-5-5-3-3-3-3-3-3-3-3|
|-8--8--8--8--8--8--8--8--11-11-11-11-11-11-11-11-3-3-3-3-3-3-3-3-1-1-1-1-1-1-1-1|
|--------------------------------------------------------------------------------|

|------------------------------|
|------------------------------|
|-5---5---5---5---8---8---8---8| X 8
|-5---5---5---5---8---8---8---8|
|-3---3---3---3---6---6---6---6|
|------------------------------|

Bridge (listen to the original to know when this comes in)
|-----------------------------------------------------------------|
|-----------------------------------------------------------------|
|------------------5-5-5-5-5-5-5-5-4-4-4-4-4-4-4-4-4-4-4-4-4-4-4-4|
|-6---6---6-6--6---5-5-5-5-5-5-5-5-4-4-4-4-4-4-4-4-4-4-4-4-4-4-4-4|
|-6---6---6-6--6---3-3-3-3-3-3-3-3-2-2-2-2-2-2-2-2-2-2-2-2-2-2-2-2|
|-4---4---4-4--4--------------------------------------------------|

Outro
|-----------------------------------------------------------------------------------------------|
|-----------------------------------------------------------------------------------------------|
|-----------------------------------------------------------------------------------------------|
|3-3-3-3-3-3-3-3-6-6-6-6-6-6-6-6-5-5-5-5-5-5-5-5-3-3-3-3-3-3-3-3-3-3-3-3-3-3-3-3-6-6-6-6-6-6-6-6|
|3-3-3-3-3-3-3-3-6-6-6-6-6-6-6-6-3-3-3-3-3-3-3-3-1-1-1-1-1-1-1-1-1-1-1-1-1-1-1-1-4-4-4-4-4-4-4-4|
|1-1-1-1-1-1-1-1-4-4-4-4-4-4-4-4----------------------------------------------------------------|

|---------------------------------|------------------------------------------|
|---------------------------------|------------------------------------------|
|-5-5-5-5-5-5-5-5-3-3-3-3-3-3-3-3-|10---10---10---10---13---13---13---13---5-|
|-5-5-5-5-5-5-5-5-3-3-3-3-3-3-3-3-|X----X----X----X----X----X----X----X----X-|
|-3-3-3-3-3-3-3-3-1-1-1-1-1-1-1-1-|8----8----8----8----11---11---11---11---3-| ---|
|---------------------------------|------------------------------------------|    |
                                                                                  |
------------------------------|                                                   |
------------------------------|                                                   |
--5---5---5---3---3---3---3---| --------------------------------------------------- X 2
--X---X---X---X---X---X---X---|
--3---3---3---1---1---1---1---|
------------------------------|

 (Hold)
|------|
|------|
|-5----|
|-X----|
|-3----|
|------|

Lead and Bass Tabs to Follow
Tap to rate this tab
 
# A B C D E F G H I J K L M N O P Q R S T U V W X Y Z