Song name
# A B C D E F G H I J K L M N O P Q R S T U V W X Y Z

Anberlin - A Whisper A Clamor tab

Hey, everybody!
I just recently learned this song and really enjoyed it, so, here's my tab. I
know there's probably two guitars, but I couldn't tell at any point what both
guitars were playing at the same time, so I just tabbed it as one guitar.
Anyway, have fun learning the song. You can email me at njbauch23@yahoo.com with
any comments, questions, suggestions, corrections, requests, bananas, cologne,
or absolutely anything else you can think of. Good day!

A WHISPER & A CLAMOR
As recorded by Anberlin
(From the 2007 Album CITIES)

Music by Anberlin
Transcribed by njbauch22

Gtr I (C G C F A D) - 'Distortion Guitar'
Gtr II (D G C F A D) - 'Acoustic Guitar'
Gtr III (E A D G B E) - 'Piano'

 Intro
  Q=166
 4/4
  Gtr I
  E E E E E E  E  E    E  E  E  E  Q      E E
|-------------------|-------------------------|
|-------------------|-------------------------|
|-------------10-10-|-10-10-10-10-10b12r=10---|
|-------------------|-------------------------|
|-------------------|-----------------------0-|
|-0-0-0-0-0-0-------|-------------------------|


  E E E E E E  E  E    E  E  E  E  Q      E  E
|-------------------|--------------------------|
|-------------------|--------------------------|
|-------------10-10-|-10-10-10-10-10b12r=10-10-|
|-------------------|--------------------------|
|-------------------|--------------------------|
|-0-0-0-0-0-0-------|--------------------------|


    E E E E E E E E    E  E  E  E  E  E  E  E
||--5-5-5-5-5-5-5-5-|-------------------------|
||o-6-6-6-6-6-6-6-6-|-10-10-10-10-10-10-10-10-|
||--7-7-7-7-7-7-7-7-|-10-10-10-10-10-10-10-10-|
||--7-7-7-7-7-7-7-7-|-10-10-10-10-10-10-10-10-|
||o-5-5-5-5-5-5-5-5-|--8--8--8--8--8--8--8--8-|
||------------------|-------------------------|


  E E E E E E E E   E E E E E E E E
|-----------------|------------------||
|-5-5-5-5-5-5-5-5-|-5-5-5-5-5-5-5-5-o||
|-5-5-5-5-5-5-5-5-|-5-5-5-5-5-5-5-5--||
|-5-5-5-5-5-5-5-5-|-5-5-5-5-5-5-5-5--||
|-3-3-3-3-3-3-3-3-|-3-3-3-3-3-3-3-3-o||
|-----------------|------------------||


   Verse
    $
    E E E  E  E  E E E   E  E  E  E  E  E E E
||---------------------|----------------------|
||o--------------------|----------------------|
||--------10-10-10-9-9-|-9--------------------|
||---------------------|---10-10-10-----------|
||o--------------------|------------10-10-8-8-|
||--0-0-0--------------|----------------------|


  E E E  E  E  E E E   E  E  E  E  E  E E E
|--------------------|----------------------|
|--------------------|----------------------|
|-------10-10-10-9-9-|-9--------------------|
|--------------------|---10-10-10-----------|
|--------------------|------------10-10-8-8-|
|-0-0-0--------------|----------------------|


  E E E  E  E  E E E   E  E  E  E  E  E E E
|--------------------|----------------------|
|--------------------|----------------------|
|-------10-10-10-9-9-|-9--------------------|
|--------------------|---10-10-10-----------|
|--------------------|------------10-10-8-8-|
|-8-8-8--------------|----------------------|


                                     To Coda
  E E E  E  E  E E E   E  E  E  E  E  E E E
|--------------------|------------------------||
|--------------------|-----------------------o||
|-------10-10-10-9-9-|-9----------------------||
|--------------------|---10-10-10-------------||
|--------------------|------------10-10-8-8--o||
|-8-8-8--------------|------------------------||


 Pre-Chorus
  E E E E E E  E  E    E  E  E  E  Q      E  E
|-------------------|--------------------------||
|-------------------|--------------------------||
|-------------10-10-|-10-10-10-10-10b12r=10-10-||
|-------------------|--------------------------||
|-------------------|--------------------------||
|-0-0-0-0-0-0-------|--------------------------||


   Chorus
    &
    E E E E E E E E    E  E  E  E  E  E  E  E
||--5-5-5-5-5-5-5-5-|-------------------------|
||o-6-6-6-6-6-6-6-6-|-10-10-10-10-10-10-10-10-|
||--7-7-7-7-7-7-7-7-|-10-10-10-10-10-10-10-10-|
||--7-7-7-7-7-7-7-7-|-10-10-10-10-10-10-10-10-|
||o-5-5-5-5-5-5-5-5-|--8--8--8--8--8--8--8--8-|
||------------------|-------------------------|


                      D.S. al Coda
  E E E E E E E E   E E E E E E E E  4x
|-----------------|------------------||
|-5-5-5-5-5-5-5-5-|-5-5-5-5-5-5-5-5-o||
|-5-5-5-5-5-5-5-5-|-5-5-5-5-5-5-5-5--||
|-5-5-5-5-5-5-5-5-|-5-5-5-5-5-5-5-5--||
|-3-3-3-3-3-3-3-3-|-3-3-3-3-3-3-3-3-o||
|-----------------|------------------||


    E E E E E E E E    E  E  E  E  E  E  E  E
||--5-5-5-5-5-5-5-5-|-------------------------|
||o-6-6-6-6-6-6-6-6-|-10-10-10-10-10-10-10-10-|
||--7-7-7-7-7-7-7-7-|-10-10-10-10-10-10-10-10-|
||--7-7-7-7-7-7-7-7-|-10-10-10-10-10-10-10-10-|
||o-5-5-5-5-5-5-5-5-|--8--8--8--8--8--8--8--8-|
||------------------|-------------------------|


  E E E E E E E E   E E E E E E E E
|-----------------|------------------||
|-5-5-5-5-5-5-5-5-|-5-5-5-5-5-5-5-5-o||
|-5-5-5-5-5-5-5-5-|-5-5-5-5-5-5-5-5--||
|-5-5-5-5-5-5-5-5-|-5-5-5-5-5-5-5-5--||
|-3-3-3-3-3-3-3-3-|-3-3-3-3-3-3-3-3-o||
|-----------------|------------------||


   Bridge
    Gtr II
     E  Q   Q   Q.     E  Q   Q   Q.     E  Q   Q   Q.     E Q   Q   Q.
||-------------------|-----------------|-----------------|----------------|
||o---------6---5----|--------3---1----|--------3---1----|----------------|
||-------------------|----2------------|----2------------|-------0---2----|
||------7------------|-----------------|-----------------|----------------|
||o--5---------------|-3---------------|-3---------------|---3------------|
||-------------------|-----------------|-----------------|-3--------------|
|
|   Gtr III
|    E  Q   Q   Q.     E  Q   Q   Q.     E  Q   Q   Q.     E Q   Q   Q.
||---------11--10----|--------8--------|--------8--------|----------------|
||o-----8------------|----8------11----|----8------11----|-----------8----|
||----------8---7----|-----------------|-----------------|------10--------|
||--10---------------|-8-----10---8----|-8-----10---8----|---8------------|
||o----10------------|---10------------|---10------------|-8-----8--10----|
||---8---------------|-6---------------|-6---------------|-1-6------------|


   E  Q   Q   Q.     E  Q   Q   Q.     E  Q   Q   Q.     E Q   Q   Q.
|------------------|-----------------|-----------------|------------------||
|---------6---5----|--------3---1----|--------3---1----|-----------------o||
|------------------|----2------------|----2------------|-------0----------||
|-----7------------|-----------------|-----------------|-----------3------||
|--5---------------|-3---------------|-3---------------|---3-------------o||
|------------------|-----------------|-----------------|-3----------------||
|
|  E  Q   Q   Q.     E  Q   Q   Q.     E  Q   Q   Q.     E Q   Q   Q.
|--------11--10----|--------8--------|--------8--------|------------------||
|-----8------------|----8------11----|----8------11----|-----------------o||
|---------8---7----|-----------------|-----------------|------10---8------||
|-10---------------|-8-----10---8----|-8-----10---8----|---8--------------||
|----10------------|---10------------|---10------------|-8-----8---------o||
|--8---------------|-6---------------|-6---------------|-1-6------11------||


    Gtrs I, II
    q  q  q  q    q  q  q  q    q  q  q  q    q  q  q  q
||--------------|-------------|-------------|--------------||
||o-------------|-------------|-------------|-------------o||
||--7--7--7--7--|-3--3--3--3--|-5--5--5--5--|-5--5--5--5---||
||--7--7--7--7--|-3--3--3--3--|-5--5--5--5--|-5--5--5--5---||
||o-5--5--5--5--|-1--1--1--1--|-3--3--3--3--|-3--3--3--3--o||
||--------------|-------------|-------------|--------------||


    Q  Q  Q  Q    Q  Q  Q  Q    Q  Q  Q  Q    Q  Q  Q  Q
||--------------|-------------|-------------|--------------||
||o-------------|-------------|-------------|-------------o||
||--7--7--7--7--|-3--3--3--3--|-5--5--5--5--|-5--5--5--5---||
||--7--7--7--7--|-3--3--3--3--|-5--5--5--5--|-5--5--5--5---||
||o-5--5--5--5--|-1--1--1--1--|-3--3--3--3--|-3--3--3--3--o||
||--------------|-------------|-------------|--------------||


   Chorus
    Gtr I
    E E E E E E E E    E  E  E  E  E  E  E  E
||--5-5-5-5-5-5-5-5-|-------------------------|
||o-6-6-6-6-6-6-6-6-|-10-10-10-10-10-10-10-10-|
||--7-7-7-7-7-7-7-7-|-10-10-10-10-10-10-10-10-|
||--7-7-7-7-7-7-7-7-|-10-10-10-10-10-10-10-10-|
||o-5-5-5-5-5-5-5-5-|--8--8--8--8--8--8--8--8-|
||------------------|-------------------------|


  E E E E E E E E   E E E E E E E E  4x
|-----------------|------------------||
|-5-5-5-5-5-5-5-5-|-5-5-5-5-5-5-5-5-o||
|-5-5-5-5-5-5-5-5-|-5-5-5-5-5-5-5-5--||
|-5-5-5-5-5-5-5-5-|-5-5-5-5-5-5-5-5--||
|-3-3-3-3-3-3-3-3-|-3-3-3-3-3-3-3-3-o||
|-----------------|------------------||


   Outro
    Gtr II
     E  Q   Q   Q.     E  Q   Q   Q.     E  Q   Q   Q.     E Q   Q   Q.
||-------------------|-----------------|-----------------|----------------|
||o---------6---5----|--------3---1----|--------3---1----|----------------|
||-------------------|----2------------|----2------------|-------0---2----|
||------7------------|-----------------|-----------------|----------------|
||o--5---------------|-3---------------|-3---------------|---3------------|
||-------------------|-----------------|-----------------|-3--------------|
|
|   Gtr III
|    E  Q   Q   Q.     E  Q   Q   Q.     E  Q   Q   Q.     E Q   Q   Q.
||---------11--10----|--------8--------|--------8--------|----------------|
||o-----8------------|----8------11----|----8------11----|-----------8----|
||----------8---7----|-----------------|-----------------|------10--------|
||--10---------------|-8-----10---8----|-8-----10---8----|---8------------|
||o----10------------|---10------------|---10------------|-8-----8--10----|
||---8---------------|-6---------------|-6---------------|-1-6------------|


   E  Q   Q   Q.     E  Q   Q   Q.     E  Q   Q   Q.     E Q   Q   Q.
|------------------|-----------------|-----------------|------------------||
|---------6---5----|--------3---1----|--------3---1----|-----------------o||
|------------------|----2------------|----2------------|-------0----------||
|-----7------------|-----------------|-----------------|-----------3------||
|--5---------------|-3---------------|-3---------------|---3-------------o||
|------------------|-----------------|-----------------|-3----------------||
|
|  E  Q   Q   Q.     E  Q   Q   Q.     E  Q   Q   Q.     E Q   Q   Q.
|--------11--10----|--------8--------|--------8--------|------------------||
|-----8------------|----8------11----|----8------11----|-----------------o||
|---------8---7----|-----------------|-----------------|------10---8------||
|-10---------------|-8-----10---8----|-8-----10---8----|---8--------------||
|----10------------|---10------------|---10------------|-8-----8---------o||
|--8---------------|-6---------------|-6---------------|-1-6------11------||


Duration Legend
---------------
W - whole; H - half; Q - quarter; E - 8th; . - note dotted; Uncapitalized letters
represent notes that are staccato (1/2 duration); Duration letters will always appear
directly above the note/fret number it represents the duration for; Duration letters with
no fret number below them represent rests

Tablature Legend
----------------
 b   - bend
 r   - bend release (if no number after the r, then release immediately)
 =   - hold bend

Misc Legend
-----------
 |  - bar
||  - double bar
||o - repeat start
o|| - repeat end
 $  - Segno
 &  - Coda
Tap to rate this tab
 
# A B C D E F G H I J K L M N O P Q R S T U V W X Y Z