Song name
# A B C D E F G H I J K L M N O P Q R S T U V W X Y Z

Anberlin - Godspeed tab

Hey people,
This is only my third tab, but I think it's pretty accurate. The only thing I
know is wrong is that, only for the first four measures, there's another guitar
playing Guitar 1's part an octave higher. It's pretty obvious if you listen to
the beginning of the song, but I couldn't hear it any other time in the song, so
I just got rid of it altogether.
I've never heard an acoustic version of this, but that could be interesting.
Anyway, email me at njbauch23@yahoo.com with any questions or comments.

GODSPEED
As recorded by Anberlin
(From the 2007 Album CITIES)

Music by Anberlin
Transcribed by njbauch22

Gtr I (C G C F A D) - 'Lead Guitar'
Gtr II (C G C F A D) - 'Rhythm Guitar'

   Intro
    Q=175
   4/4
    Gtr I
    E E  E E  E E E E   E E E E E E E E   E E E E E E E E
||--------------------|-----------------|-----------------|
||o-----10---10-------|-8---8-----8---8-|-----8---8-------|
||--7-7----7----7-7-7-|---7---7-7---7---|-5-5---5---5-5-5-|
||--------------------|-----------------|-----------------|
||o-------------------|-----------------|-----------------|
||--------------------|-----------------|-----------------|
|
|   Gtr II
|   E E  E E  E E E E   E E E E E E E E   E E E E E E E E
||--------------------|-----------------|-----------------|
||o-------------------|-----------------|-----------------|
||--------------------|-----------------|-----------------|
||--0-0--0-0--0-0-0-0-|-3-3-3-3-3-3-3-3-|-8-8-8-8-8-8-8-8-|
||o-0-0--0-0--0-0-0-0-|-3-3-3-3-3-3-3-3-|-8-8-8-8-8-8-8-8-|
||--0-0--0-0--0-0-0-0-|-3-3-3-3-3-3-3-3-|-8-8-8-8-8-8-8-8-|


   E  E  E  E  E  E  E  E   E E E E Q   E E   E  E  Q     E  E  E  E
|-------------------------|-----------------|---------------------------||
|--6-----6--------6-----6-|-6-5---8-5---6-5-|----8--5----13-13-13-13---o||
|-----5-----5--5-----5----|-----5-----------|-5----------10-10-10-10----||
|-------------------------|-----------------|---------------------------||
|-------------------------|-----------------|--------------------------o||
|-------------------------|-----------------|---------------------------||
|
|  E  E  E  E  E  E  E  E   E E E E E E E E   E  E  E  E  E  E  E  E
|-------------------------|-----------------|---------------------------||
|-------------------------|-----------------|--------------------------o||
|-------------------------|-----------------|---------------------------||
|-10-10-10-10-10-10-10-10-|-0-0-0-3-3-3-8-8-|-8-10-10-10-10-10-10-10----||
|-10-10-10-10-10-10-10-10-|-0-0-0-3-3-3-8-8-|-8-10-10-10-10-10-10-10---o||
|-10-10-10-10-10-10-10-10-|-0-0-0-3-3-3-8-8-|-8-10-10-10-10-10-10-10----||


 Verse 1
  Gtr I
   E  E  q   q   q    q  q  q  E E   E  E  q   q   q    q  q  q  E E
|--8--8--8---8---8--|-8--8--8--8-8-|-8--8--8---8---8--|-8--8--8--8-8--|
|-10-10-10--10--10--|-8--8--8--8-8-|-8-10-10--10--10--|-8--8--8--8-8--|
|--7--7--7---7---7--|-7--7--7--7-7-|-7--7--7---7---7--|-7--7--7--7-7--|
|-------------------|--------------|------------------|---------------|
|-------------------|--------------|------------------|---------------|
|-------------------|--------------|------------------|---------------|


  E E q  q  q    q  q  q  E E   E E q  q  q    q  q  q  q
|-8-8-8--8--8--|-8--8--8--8-8-|-6-6-6--6--6--|-6--6--6--6-|
|-8-8-8--8--8--|-8--8--8--8-8-|-6-6-6--6--6--|-6--6--6--6-|
|-7-5-5--5--5--|-5--5--5--5-5-|-3-3-3--3--3--|-3--3--3--3-|
|--------------|--------------|--------------|------------|
|--------------|--------------|--------------|------------|
|--------------|--------------|--------------|------------|


  Gtr I
   E  E  q    q    q     q   q   q   E  E
|--8--8--8----8----8---|-8---8---8---8--8-|
|-10-10-10---10---10---|-8---8---8---8--8-|
|--7--7--7----7----7---|-7---7---7---7--7-|
|----------------------|------------------|
|----------------------|------------------|
|----------------------|------------------|
|
| Gtr II
|  E  E  E E  E E  E E   E E E E E E E  E
|----------------------|------------------|
|----------------------|------------------|
|----------------------|------------------|
|--0--0--0-0--0-0--0-0-|-0-0-0-0-0-0-0-10-|
|--0--0--0-0--0-0--0-0-|-0-0-0-0-0-0-0-10-|
|--0--0--0-0--0-0--0-0-|-0-0-0-0-0-0-0-10-|


   E  E  q    q    q     q   q   q   E E
|--8--8--8----8----8---|-8---8---8---8-8--|
|--8-10-10---10---10---|-8---8---8---8-8--|
|--7--7--7----7----7---|-7---7---7---7-7--|
|----------------------|------------------|
|----------------------|------------------|
|----------------------|------------------|
|
|  E  E  E E  E E  E E   E E E E E E E E
|----------------------|------------------|
|----------------------|------------------|
|----------------------|------------------|
|-10--0--0-0--0-0--0-0-|-0-0-0-0-0-0-0-8--|
|-10--0--0-0--0-0--0-0-|-0-0-0-0-0-0-0-8--|
|-10--0--0-0--0-0--0-0-|-0-0-0-0-0-0-0-8--|


  E  E  q     q     q       q     q     q     E  E   E E q   q   q
|-8--8--8-----8-----8----|--8-----8-----8-----8--8-|-6-6-6---6---6---|
|-8--8--8-----8-----8----|--8-----8-----8-----8--8-|-6-6-6---6---6---|
|-7--5--5-----5-----5----|--5-----5-----5-----5--5-|-3-3-3---3---3---|
|------------------------|-------------------------|-----------------|
|------------------------|-------------------------|-----------------|
|------------------------|-------------------------|-----------------|
|
| E  E  E  E  E  E  E  E    E  E  E  E  E  E  E  E   E E E E E E E E
|------------------------|-------------------------|-----------------|
|------------------------|-------------------------|-----------------|
|------------------------|-------------------------|-----------------|
|-8-10-10-10-10-10-10-10-|-10-10-10-10-10-10-10-10-|-8-8-8-8-8-8-8-8-|
|-8-10-10-10-10-10-10-10-|-10-10-10-10-10-10-10-10-|-8-8-8-8-8-8-8-8-|
|-8-10-10-10-10-10-10-10-|-10-10-10-10-10-10-10-10-|-8-8-8-8-8-8-8-8-|


  q   q   q   q     W                 W
|-6---6---6---6---|-----------------|------------------------|
|-6---6---6---6---|-----------------|------------------------|
|-3---3---3---3---|-----------------|------------------------|
|-----------------|-----------------|------------------------|
|-----------------|-----------------|------------------------|
|-----------------|-----------------|------------------------|
|
| E E E E E E E E   E E E E E E E E   E  E  E  E  E  E  E  E
|-----------------|-----------------|------------------------|
|-----------------|-----------------|------------------------|
|-----------------|-----------------|------------------------|
|-8-8-8-8-8-8-8-8-|-0-0-0-3-3-3-8-8-|-8-10-10-10-10-10-10-10-|
|-8-8-8-8-8-8-8-8-|-0-0-0-3-3-3-8-8-|-8-10-10-10-10-10-10-10-|
|-8-8-8-8-8-8-8-8-|-0-0-0-3-3-3-8-8-|-8-10-10-10-10-10-10-10-|


 Pre-Chorus
  Gtr II
         PM|    PM|      PM|    PM|
  E E  E E E  E E E    E E E  E E E  E  E   E E E E E E E E   E E E E E E E E
|-------------------|---------------------|-----------------|------------------|
|-------------------|---------------------|-----------------|------------------|
|-------------------|---------------------|-----------------|------------------|
|-7-7-10-----10-----|-10-----10-----10-10-|-3-3-7-7-7-7-7-7-|-7-7-7-7-7-7-7-7--|
|-8-8--8------8-----|--8------8------8--8-|-3-3-5-5-5-5-5-5-|-5-5-5-5-5-5-5-5--|
|-7-7--8-8-8--8-8-8-|--8-8-8--8-8-8--8--8-|-3-3-5-5-5-5-5-5-|-5-5-5-5-5-5-5-5--|


         PM|    PM|      PM|    PM|
  E E  E E E  E E E    E E E  E E E  E  E
|-------------------|---------------------|
|-------------------|---------------------|
|-------------------|---------------------|
|-7-7-10-----10-----|-10-----10-----10-10-|
|-8-8--8------8-----|--8------8------8--8-|
|-7-7--8-8-8--8-8-8-|--8-8-8--8-8-8--8--8-|
|
| W                    W
|-------------------|---------------------|
|-------------------|---------------------|
|-------------------|---------------------|
|-------------------|---------------------|
|-------------------|---------------------|
|-------------------|---------------------|


  Gtr I
   W                        +W
|------------------------|--------------------|
|-10---------------------|-(10)---------------|
|-12b14------------------|-(12)---------------|
|------------------------|--------------------|
|------------------------|--------------------|
|------------------------|--------------------|
|
| Gtr II
|  q      e  e  q   e  e     e   Q   E  +H
|------------------------|--------------------|
|------------------------|--------------------|
|------------------------|--------------------|
|-10-----10-10-10--10-10-|--10--10--10-(10)---|
|-10-----10-10-10--10-10-|--10--10--10-(10)---|
|-10-----10-10-10--10-10-|--10--10--10-(10)---|


 Chorus
  Gtr II
  E E E E E E E E   E E E E E E E E    E  E  E  E  E  E  E  E
|-----------------|-----------------|-------------------------|
|-----------------|-----------------|-------------------------|
|-----------------|-----------------|-10-10-10-10-10-10-10-10-|
|-0-0-0-0-0-0-0-0-|-3-3-3-3-3-3-3-3-|--8--8--8--8--8--8--8--8-|
|-0-0-0-0-0-0-0-0-|-3-3-3-3-3-3-3-3-|--8--8--8--8--8--8--8--8-|
|-0-0-0-0-0-0-0-0-|-3-3-3-3-3-3-3-3-|--8--8--8--8--8--8--8--8-|


   E  E  E  E  E  E  E  E   E E E E E E E E   E  E  E  E  E  E  E  E
|-------------------------|-----------------|------------------------|
|-------------------------|-----------------|------------------------|
|-12-12-12-12-12-12-12-12-|-----------------|------------------------|
|-10-10-10-10-10-10-10-10-|-0-0-0-3-3-3-8-8-|-8-10-10-10-10-10-10-10-|
|-10-10-10-10-10-10-10-10-|-0-0-0-3-3-3-8-8-|-8-10-10-10-10-10-10-10-|
|-10-10-10-10-10-10-10-10-|-0-0-0-3-3-3-8-8-|-8-10-10-10-10-10-10-10-|


  Gtr I
  E E  E E  E E E E   E E E E E E E E    E  E  E  E  E  E  E  E
|-------------------|-----------------|-------------------------|
|-----10---10-------|-8---8-----8---8-|--------8-----8----------|
|-7-7----7----7-7-7-|---7---7-7---7---|--5--5-----5-----5--5--5-|
|-------------------|-----------------|-------------------------|
|-------------------|-----------------|-------------------------|
|-------------------|-----------------|-------------------------|
|
| Gtr II
| E E  E E  E E E E   E E E E E E E E    E  E  E  E  E  E  E  E
|-------------------|-----------------|-------------------------|
|-------------------|-----------------|-------------------------|
|-------------------|-----------------|-10-10-10-10-10-10-10-10-|
|-0-0--0-0--0-0-0-0-|-3-3-3-3-3-3-3-3-|--8--8--8--8--8--8--8--8-|
|-0-0--0-0--0-0-0-0-|-3-3-3-3-3-3-3-3-|--8--8--8--8--8--8--8--8-|
|-0-0--0-0--0-0-0-0-|-3-3-3-3-3-3-3-3-|--8--8--8--8--8--8--8--8-|


   E  E  E  E  E  E  E  E   E E E E Q   E E   E  E  Q     E  E  E  E
|-------------------------|-----------------|------------------------|
|--6-----6--------6-----6-|-6-5---8-5---6-5-|----8--5----13-13-13-13-|
|-----5-----5--5-----5----|-----5-----------|-5----------10-10-10-10-|
|-------------------------|-----------------|------------------------|
|-------------------------|-----------------|------------------------|
|-------------------------|-----------------|------------------------|
|
|  E  E  E  E  E  E  E  E   E E E E E E E E   E  E  E  E  E  E  E  E
|-------------------------|-----------------|------------------------|
|-------------------------|-----------------|------------------------|
|-12-12-12-12-12-12-12-12-|-----------------|------------------------|
|-10-10-10-10-10-10-10-10-|-0-0-0-3-3-3-8-8-|-8-10-10-10-10-10-10-10-|
|-10-10-10-10-10-10-10-10-|-0-0-0-3-3-3-8-8-|-8-10-10-10-10-10-10-10-|
|-10-10-10-10-10-10-10-10-|-0-0-0-3-3-3-8-8-|-8-10-10-10-10-10-10-10-|


   Verse 2
    Gtr I
     E  E  q   q   q    q  q  q  E E   E  E  q   q   q    q  q  q  E E
||---8--8--8---8---8--|-8--8--8--8-8-|-8--8--8---8---8--|-8--8--8--8-8-|
||o-10-10-10--10--10--|-8--8--8--8-8-|-8-10-10--10--10--|-8--8--8--8-8-|
||---7--7--7---7---7--|-7--7--7--7-7-|-7--7--7---7---7--|-7--7--7--7-7-|
||--------------------|--------------|------------------|--------------|
||o-------------------|--------------|------------------|--------------|
||--------------------|--------------|------------------|--------------|


  E E q  q  q    q  q  q  E E   E E q  q  q    q  q  q  q
|-8-8-8--8--8--|-8--8--8--8-8-|-6-6-6--6--6--|-6--6--6--6--||
|-8-8-8--8--8--|-8--8--8--8-8-|-6-6-6--6--6--|-6--6--6--6-o||
|-7-5-5--5--5--|-5--5--5--5-5-|-3-3-3--3--3--|-3--3--3--3--||
|--------------|--------------|--------------|-------------||
|--------------|--------------|--------------|------------o||
|--------------|--------------|--------------|-------------||


 Pre-Chorus 2
  Gtr II
         PM|    PM|      PM|    PM|
  E E  E E E  E E E    E E E  E E E  E  E   E E E E E E E E   E E E E E E E E
|-------------------|---------------------|-----------------|------------------|
|-------------------|---------------------|-----------------|------------------|
|-------------------|---------------------|-----------------|------------------|
|-7-7-10-----10-----|-10-----10-----10-10-|-3-3-7-7-7-7-7-7-|-7-7-7-7-7-7-7-7--|
|-8-8--8------8-----|--8------8------8--8-|-3-3-5-5-5-5-5-5-|-5-5-5-5-5-5-5-5--|
|-7-7--8-8-8--8-8-8-|--8-8-8--8-8-8--8--8-|-3-3-5-5-5-5-5-5-|-5-5-5-5-5-5-5-5--|


                                            Gtr II
         PM|    PM|      PM|    PM|         PM----------------|
  E E  E E E  E E E    E E E  E E E  E  E   E E E E E E E E   E E E E E E E E
|-------------------|---------------------|-----------------|------------------|
|-------------------|---------------------|-----------------|------------------|
|-------------------|---------------------|-----------------|------------------|
|-7-7-10-----10-----|-10-----10-----10-10-|-----------------|---x-x-x-x-x-x-x--|
|-8-8--8------8-----|--8------8------8--8-|-----------------|---x-x-x-x-x-x-x--|
|-7-7--8-8-8--8-8-8-|--8-8-8--8-8-8--8--8-|-0-0-0-0-0-0-0-0-|-0-x-x-x-x-x-x-x--|


 Chorus 2
  Gtr II
  E E E E E E E E   E E E E E E E E    E  E  E  E  E  E  E  E
|-----------------|-----------------|-------------------------|
|-----------------|-----------------|-------------------------|
|-----------------|-----------------|-10-10-10-10-10-10-10-10-|
|-0-0-0-0-0-0-0-0-|-3-3-3-3-3-3-3-3-|--8--8--8--8--8--8--8--8-|
|-0-0-0-0-0-0-0-0-|-3-3-3-3-3-3-3-3-|--8--8--8--8--8--8--8--8-|
|-0-0-0-0-0-0-0-0-|-3-3-3-3-3-3-3-3-|--8--8--8--8--8--8--8--8-|


   E  E  E  E  E  E  E  E   E E E E E E E E   E  E  E  E  E  E  E  E
|-------------------------|-----------------|------------------------|
|-------------------------|-----------------|------------------------|
|-12-12-12-12-12-12-12-12-|-----------------|------------------------|
|-10-10-10-10-10-10-10-10-|-0-0-0-3-3-3-8-8-|-8-10-10-10-10-10-10-10-|
|-10-10-10-10-10-10-10-10-|-0-0-0-3-3-3-8-8-|-8-10-10-10-10-10-10-10-|
|-10-10-10-10-10-10-10-10-|-0-0-0-3-3-3-8-8-|-8-10-10-10-10-10-10-10-|


  Gtr I
  E E  E E  E E E E   E E E E E E E E    E  E  E  E  E  E  E  E
|-------------------|-----------------|-------------------------|
|-----10---10-------|-8---8-----8---8-|--------8-----8----------|
|-7-7----7----7-7-7-|---7---7-7---7---|--5--5-----5-----5--5--5-|
|-------------------|-----------------|-------------------------|
|-------------------|-----------------|-------------------------|
|-------------------|-----------------|-------------------------|
|
| Gtr II
| E E  E E  E E E E   E E E E E E E E    E  E  E  E  E  E  E  E
|-------------------|-----------------|-------------------------|
|-------------------|-----------------|-------------------------|
|-------------------|-----------------|-10-10-10-10-10-10-10-10-|
|-0-0--0-0--0-0-0-0-|-3-3-3-3-3-3-3-3-|--8--8--8--8--8--8--8--8-|
|-0-0--0-0--0-0-0-0-|-3-3-3-3-3-3-3-3-|--8--8--8--8--8--8--8--8-|
|-0-0--0-0--0-0-0-0-|-3-3-3-3-3-3-3-3-|--8--8--8--8--8--8--8--8-|


   E  E  E  E  E  E  E  E   E E E E Q   E E   E  E  Q     E  E      E  E
|-------------------------|-----------------|-----------------------------|
|--6-----6--------6-----6-|-6-5---8-5---6-5-|----8--5----13-10-----10-10--|
|-----5-----5--5-----5----|-----5-----------|-5----------10-12b14==12-12r-|
|-------------------------|-----------------|-----------------------------|
|-------------------------|-----------------|-----------------------------|
|-------------------------|-----------------|-----------------------------|
|
|  E  E  E  E  E  E  E  E   E E E E E E E E   E  E  E  E  E  E      E  E
|-------------------------|-----------------|-----------------------------|
|-------------------------|-----------------|-----------------------------|
|-12-12-12-12-12-12-12-12-|-----------------|-----------------------------|
|-10-10-10-10-10-10-10-10-|-0-0-0-3-3-3-8-8-|-8-10-10-10-10-10-----10-10--|
|-10-10-10-10-10-10-10-10-|-0-0-0-3-3-3-8-8-|-8-10-10-10-10-10-----10-10--|
|-10-10-10-10-10-10-10-10-|-0-0-0-3-3-3-8-8-|-8-10-10-10-10-10-----10-10--|


 Bridge/Solo
   Q        +E    Q        +E    Q          +E    Q        +E    Q       Q
|----------------------------------------|-----------------------------------|
|-10-------(10)--10-------(10)--10-------|-(10)--10-------(10)--10-----------|
|-12b14====(12)r-12b14====(12)r-12b14====|=(12)r-12b14====(12)r-12b14r==10---|
|----------------------------------------|-----------------------------------|
|----------------------------------------|-----------------------------------|
|----------------------------------------|-----------------------------------|
|
|  E     E   E    E     E   E    E     E     E    E     E   E    E    E  E E
|----------------------------------------|-----------------------------------|
|----------------------------------------|-----------------------------------|
|----------------------------------------|-----------------------------------|
|--8-----8---8----8-----8---8----8-----8-|---8----8-----8---8----8----8--8-8-|
|--8-----8---8----8-----8---8----8-----8-|---8----8-----8---8----8----8--8-8-|
|--8-----8---8----8-----8---8----8-----8-|---8----8-----8---8----8----8--8-8-|


   S  S  S  S  S  S  S  S  S  S  S  S  S  S  S  S
|-------------------------------------------------|
|-10h13p10----------10h13p10----------10h13p10----|
|----------10h12p10----------10h12p10----------10h|
|-------------------------------------------------|
|-------------------------------------------------|
|-------------------------------------------------|
|
|  E     E     E     E     E     E     E     E
|-------------------------------------------------|
|-------------------------------------------------|
|-------------------------------------------------|
|-10----10----10----10----10----10----10----10----|
|-10----10----10----10----10----10----10----10----|
|-10----10----10----10----10----10----10----10----|


   S  S  S  S  S  S  S  S  S  S  S  S  S  S  S  S
|---------------------------------------------------|
|-------10h13p10----------10h13p10----------10h13---|
|=12p10----------10h12p10----------10h12p10---------|
|---------------------------------------------------|
|---------------------------------------------------|
|---------------------------------------------------|
|
|
|---------------------------------------------------|
|---------------------------------------------------|
|---------------------------------------------------|
|-10----10----10----10----10----10----10----10------|
|-10----10----10----10----10----10----10----10------|
|-10----10----10----10----10----10----10----10------|


   Q        +E    Q        +E    Q          +E    Q        +E    E    E E E
|----------------------------------------|----------------------------x-x-x-|
|-10-------(10)--10-------(10)--10-------|-(10)--10-------(10)--10----x-x-x-|
|-12b14====(12)r-12b14====(12)r-12b14====|=(12)r-12b14====(12)r-12b14-x-x-x-|
|----------------------------------------|----------------------------------|
|----------------------------------------|----------------------------------|
|----------------------------------------|----------------------------------|
|
|  E     E   E    E     E   E    E     E     E    E     E   E    E    E E E
|----------------------------------------|----------------------------------|
|----------------------------------------|----------------------------------|
|----------------------------------------|----------------------------------|
|--0-----0---0----0-----0---0----0-----0-|---0----0-----0---0----0----0-0-0-|
|--0-----0---0----0-----0---0----0-----0-|---0----0-----0---0----0----0-0-0-|
|--0-----0---0----0-----0---0----0-----0-|---0----0-----0---0----0----0-0-0-|


   E  E  E  E  E   E  E  E     E  E  E  E  E  E E E
|-13-13-13-13-13\-12-12-12\-|-10-10-10-10-10\-8-8-8--|
|---------------------------|------------------------|
|-10-10-10-10-10\--9--9--9\-|--7--7--7--7--7\-5-5-5--|
|---------------------------|------------------------|
|---------------------------|------------------------|
|---------------------------|------------------------|
|
|  E  E  E  E  E   E  E  E     E  E  E  E  E  E E E
|---------------------------|------------------------|
|---------------------------|------------------------|
|---------------------------|------------------------|
|--3--3--3--3--3---3--3--3--|--3--3--3--3--3--3-3-3--|
|--3--3--3--3--3---3--3--3--|--3--3--3--3--3--3-3-3--|
|--3--3--3--3--3---3--3--3--|--3--3--3--3--3--3-3-3--|


  E S S E S S E S S E S S   E S S E S S E S S E  E
|-8-x-x-8-x-x-8-x-x-8-x-x-|-8-x-x-8-x-x-8-x-x-8S10-|
|---x-x---x-x---x-x---x-x-|---x-x---x-x---x-x------|
|-5-x-x-5-x-x-5-x-x-5-x-x-|-5-x-x-5-x-x-5-x-x-5S=7-|
|-------------------------|------------------------|
|-------------------------|------------------------|
|-------------------------|------------------------|
|
| E E   E E   E E   E E     E E   E E   E E   E  E
|-------------------------|------------------------|
|-------------------------|------------------------|
|-------------------------|------------------------|
|-8-8---8-8---8-8---8-8---|-8-8---8-8---8-8---8--8-|
|-8-8---8-8---8-8---8-8---|-8-8---8-8---8-8---8--8-|
|-8-8---8-8---8-8---8-8---|-8-8---8-8---8-8---8--8-|


   E  S S  E  S S  E  S S  E  S S    E  S S  E  S S  E  S S  E  S S
|--8--x-x--8--x-x--8--x-x--8--x-x-|--8--x-x--8--x-x--8--x-x--8--x-x----|
|-----x-x-----x-x-----x-x-----x-x-|-----x-x-----x-x-----x-x-----x-x----|
|--5--x-x--5--x-x--5--x-x--5--x-x-|--5--x-x--5--x-x--5--x-x--5--x-x----|
|---------------------------------|------------------------------------|
|---------------------------------|------------------------------------|
|---------------------------------|------------------------------------|
|
|  E  E    E  E    E  E    E  E      E  E    E  E    E  E    E  E
|---------------------------------|------------------------------------|
|---------------------------------|------------------------------------|
|---------------------------------|------------------------------------|
|-10-10---10-10---10-10---10-10---|-10-10---10-10---10-10---10-10------|
|-10-10---10-10---10-10---10-10---|-10-10---10-10---10-10---10-10------|
|-10-10---10-10---10-10---10-10---|-10-10---10-10---10-10---10-10------|


   W           +W            Q        +E    Q        +E    Q
|-10--------|-(10)--------|-17-------(17)--17-------(17)--17-------|
|-----------|-------------|-20b22====(20)r-20b22====(20)r-20b22====|
|--7--------|--(7)--------|----------------------------------------|
|-----------|-------------|----------------------------------------|
|-----------|-------------|----------------------------------------|
|-----------|-------------|----------------------------------------|
|
|  W           +W            E     E   E    E     E   E    E     E
|-----------|-------------|----------------------------------------|
|-----------|-------------|----------------------------------------|
|-----------|-------------|----------------------------------------|
|--0--------|--(0)--------|--0-----0---0----3-----3---3----8-----8-|
|--0--------|--(0)--------|--0-----0---0----3-----3---3----8-----8-|
|--0--------|--(0)--------|--0-----0---0----3-----3---3----8-----8-|


   +E    Q         +E    E      +E    Q
|-(17)--17--------(17)--17-----(17)--17--------|
|-(20)r-20b22=====(20)r-20b22==(20)r-20b22r====|
|----------------------------------------------|
|----------------------------------------------|
|----------------------------------------------|
|----------------------------------------------|
|
|   E    E      E   E    E       E    E     E
|----------------------------------------------|
|----------------------------------------------|
|----------------------------------------------|
|---8---10-----10--10---10------10---10----10--|
|---8---10-----10--10---10------10---10----10--|
|---8---10-----10--10---10------10---10----10--|


                  Gtrs I, II
  W          H    E E E E
|----------|------x-x-x-x-|
|----------|------x-x-x-x-|
|----------|------x-x-x-x-|
|----------|------x-x-x-x-|
|----------|------x-x-x-x-|
|----------|------x-x-x-x-|


   Chorus 3
    Gtr II
    E E E E E E E E   E E E E E E E E    E  E  E  E  E  E  E  E
||------------------|-----------------|-------------------------|
||o-----------------|-----------------|-------------------------|
||------------------|-----------------|-10-10-10-10-10-10-10-10-|
||--0-0-0-0-0-0-0-0-|-3-3-3-3-3-3-3-3-|--8--8--8--8--8--8--8--8-|
||o-0-0-0-0-0-0-0-0-|-3-3-3-3-3-3-3-3-|--8--8--8--8--8--8--8--8-|
||--0-0-0-0-0-0-0-0-|-3-3-3-3-3-3-3-3-|--8--8--8--8--8--8--8--8-|


   E  E  E  E  E  E  E  E   E E E E E E E E   E  E  E  E  E  E  E  E
|-------------------------|-----------------|---------------------------|
|-------------------------|-----------------|---------------------------|
|-12-12-12-12-12-12-12-12-|-----------------|---------------------------|
|-10-10-10-10-10-10-10-10-|-0-0-0-3-3-3-8-8-|-8-10-10-10-10-10-10-10----|
|-10-10-10-10-10-10-10-10-|-0-0-0-3-3-3-8-8-|-8-10-10-10-10-10-10-10----|
|-10-10-10-10-10-10-10-10-|-0-0-0-3-3-3-8-8-|-8-10-10-10-10-10-10-10----|


  Gtr I
  E E  E E  E E E E   E E E E E E E E    E  E  E  E  E  E  E  E
|-------------------|-----------------|-------------------------|
|-----10---10-------|-8---8-----8---8-|--------8-----8----------|
|-7-7----7----7-7-7-|---7---7-7---7---|--5--5-----5-----5--5--5-|
|-------------------|-----------------|-------------------------|
|-------------------|-----------------|-------------------------|
|-------------------|-----------------|-------------------------|
|
| Gtr II
| E E  E E  E E E E   E E E E E E E E    E  E  E  E  E  E  E  E
|-------------------|-----------------|-------------------------|
|-------------------|-----------------|-------------------------|
|-------------------|-----------------|-10-10-10-10-10-10-10-10-|
|-0-0--0-0--0-0-0-0-|-3-3-3-3-3-3-3-3-|--8--8--8--8--8--8--8--8-|
|-0-0--0-0--0-0-0-0-|-3-3-3-3-3-3-3-3-|--8--8--8--8--8--8--8--8-|
|-0-0--0-0--0-0-0-0-|-3-3-3-3-3-3-3-3-|--8--8--8--8--8--8--8--8-|


   E  E  E  E  E  E  E  E   E E E E Q   E E   E  E  Q     E  E  E  E
|-------------------------|-----------------|-------------------------||
|--6-----6--------6-----6-|-6-5---8-5---6-5-|----8--5----13-13-13-13-o||
|-----5-----5--5-----5----|-----5-----------|-5----------10-10-10-10--||
|-------------------------|-----------------|-------------------------||
|-------------------------|-----------------|------------------------o||
|-------------------------|-----------------|-------------------------||
|
|  E  E  E  E  E  E  E  E   E E E E E E E E   E  E  E  E  E  E  E  E
|-------------------------|-----------------|-------------------------||
|-------------------------|-----------------|------------------------o||
|-12-12-12-12-12-12-12-12-|-----------------|-------------------------||
|-10-10-10-10-10-10-10-10-|-0-0-0-3-3-3-8-8-|-8-10-10-10-10-10-10-10--||
|-10-10-10-10-10-10-10-10-|-0-0-0-3-3-3-8-8-|-8-10-10-10-10-10-10-10-o||
|-10-10-10-10-10-10-10-10-|-0-0-0-3-3-3-8-8-|-8-10-10-10-10-10-10-10--||


  E E E E Q  E E   E E Q   E  E  E  E
|----------------|--------------------|
|-6-5---8-5--6-5-|---8-5--13-13-13-13-|
|-----5----------|-5------10-10-10-10-|
|----------------|--------------------|
|----------------|--------------------|
|----------------|--------------------|
|
| W                W
|----------------|--------------------|
|----------------|--------------------|
|----------------|--------------------|
|----------------|--------------------|
|----------------|--------------------|
|----------------|--------------------|


   E  E  E  E  E  E  E  E    E  E  E  E  E  E  E  E
|-------------------------|--------------------------*|
|-------------------------|--------------------------*|
|-17-17-17-17-17-17-17-17-|-17-17-17-17-17-17-17-17--*|
|-------------------------|--------------------------*|
|-15-15-15-15-15-15-15-15-|-15-15-15-15-15-15-15-15--*|
|-------------------------|--------------------------*|
|
|  E  E  E  E  E  E  E  E    E  E  E  E  E  E  E  E
|-------------------------|--------------------------*|
|-------------------------|--------------------------*|
|-------------------------|--------------------------*|
|--0--0--0--3--3--3--8--8-|--8-10-10-10-10-10-10-10--*|
|--0--0--0--3--3--3--8--8-|--8-10-10-10-10-10-10-10--*|
|--0--0--0--3--3--3--8--8-|--8-10-10-10-10-10-10-10--*|


Duration Legend
---------------
W - whole; H - half; Q - quarter; E - 8th; S - 16th; + - note tied to previous; . - note
dotted; Uncapitalized letters represent notes that are staccato (1/2 duration); Duration
letters will always appear directly above the note/fret number it represents the duration 
for; Duration letters with no fret number below them represent rests.

Tablature Legend
----------------
 h   - hammer-on
 p   - pull-off
 b   - bend
 r   - bend release (if no number after the r, then release immediately)
 \   - slide out of (to "nowhere")
 s   - legato slide
 PM  - palm muting
 =   - hold bend; also acts as connecting device for hammers/pulls

Misc Legend
-----------
 |  - bar
||  - double bar
||o - repeat start
o|| - repeat end
*|  - double bar (ending)
Tap to rate this tab
# A B C D E F G H I J K L M N O P Q R S T U V W X Y Z