Song name
# A B C D E F G H I J K L M N O P Q R S T U V W X Y Z

Anberlin - Someone Anyone tab

Someone, Anyone
Anberlin
Vital (2012)
Tabbed by thefletch13

Tuning: Drop B (B F# B E G# c#)


Intro (0:05)
c#|-------------------------------------------|
G#|-------------------------------------------|
E |-------------------------------------------|
B |-------------------------------------------|
F#|-------------------------------------12----|  [x2]
B |-10-0-10-0-10-12-0-10-0-10-0-0-10-12-------|

c#|-------------------------------------------------------------------------|
G#|-------------------------------------------------------------------------|
E |-------------------------------------------------------------------------|
B |-------------------------------------------------------------------------|
F#|-----------------------------3---------------------------------8---------|
B |-3-0-3-0-3-5-0-3-0-3-0-0-3-5-----8-0-8-0-8-10-0-8-0-8-0-0-8-10-----------|



Verse 1 (0:17) Palm mute entire verse x2
c#|-------------------------------------------------|
G#|-------------------------------------------------|
E |-------------------------------------------------|
B |-------------------------------------------------|
F#|-----------------------------------------12-12---|  [x2]
B |-10-12-10-12-10-12-0-10-12-10-12-0-10-12---------|

c#|-------------------------------------------------------------------------|
G#|-------------------------------------------------------------------------|
E |-------------------------------------------------------------------------|
B |-------------------------------------------------------------------------|
F#|---------------------------------------------------------------------8-8-|
B |-3-5-3-5-3-5-0-3-5-3-5-0-3-5-10-10-8-10-8-10-8-10-0-8-10-8-10-0-8-10-----|



Break (0:39)
c#|---------------------------------------------|
G#|---------------------------------------------|
E |-----------------------7-7-7-7--10-10-10-10--|
B |-----------------------x-x-x-x--x--x--x--x---|
F#|-8-8-8-8--10-10-10-10--5-5-5-5--8--8--8--8---|
B |-8-8-8-8--10-10-10-10------------------------|



Chorus (0:42) x2
Guitar 1
c#|----------------|----------------|----------------|-----------------------|
G#|----------------|----------------|----------------|-----------------------|
E |-14------17-----|-12------10-----|-14------10-----|-12-----10-----9-------|
B |-x-[x12]-x-[x4]-|-x-[x12]-x-[x4]-|-x-[x12]-x-[x4]-|-x-[x8]-x-[x4]-x-[x4]--|
F#|-12------15-----|-10------8------|-12------8------|-10-----8------7-------|
B |----------------|----------------|----------------|-----------------------|

Guitar 2
c#|-------------|-------------|------------|-------------------|
G#|-------------|-------------|------------|-------------------|
E |-------------|-------------|------------|-------------------|
B |--12---------|--10---------|--3---------|--8-------10-------|
F#|--12--[x16]--|--10--[x16]--|--3--[x16]--|--8-[x8]--10-[x8]--|
B |--12---------|--10---------|--3---------|--8-------10-------|



Main Riff (1:06)
c#|-------------------------------------------|
G#|-------------------------------------------|
E |-------------------------------------------|
B |-------------------------------------------|
F#|-------------------------------------12----|  [x2]
B |-10-0-10-0-10-12-0-10-0-10-0-0-10-12-------|

c#|-------------------------------------------------------------------------|
G#|-------------------------------------------------------------------------|
E |-------------------------------------------------------------------------|
B |-------------------------------------------------------------------------|
F#|-----------------------------3---------------------------------8---------|
B |-3-0-3-0-3-5-0-3-0-3-0-0-3-5-----8-0-8-0-8-10-0-8-0-8-0-0-8-10-----------|


Verse 2A (1:17)
No guitar

Verse 2B (1:28) Palm muted
c#|-------------------------------------------------|
G#|-------------------------------------------------|
E |-------------------------------------------------|
B |-------------------------------------------------|
F#|-----------------------------------------12-12---|  [x2]
B |-10-12-10-12-10-12-0-10-12-10-12-0-10-12---------|

c#|-------------------------------------------------------------------------|
G#|-------------------------------------------------------------------------|
E |-------------------------------------------------------------------------|
B |-------------------------------------------------------------------------|
F#|---------------------------------------------------------------------8-8-|
B |-3-5-3-5-3-5-0-3-5-3-5-0-3-5-10-10-8-10-8-10-8-10-0-8-10-8-10-0-8-10-----|



Break 2 (1:40)
c#|-------------------------------------------------------------------------|
G#|-------------------------------------------------------------------------|
E |---------------------------------------------------7-7-7-7--10-10-10-10--|
B |-12-12-12--0~---3/5-5-5-5~---8-8-8-8--10-10-10-10--7-7-7-7--10-10-10-10--|
F#|-12-12-12--0~---3/5-5-5-5~---8-8-8-8--10-10-10-10--5-5-5-5--8--8--8--8---|
B |-12-12-12--0~---3/5-5-5-5~---8-8-8-8--10-10-10-10------------------------|



Chorus (1:46) x2
Guitar 1
c#|----------------|----------------|----------------|-----------------------|
G#|----------------|----------------|----------------|-----------------------|
E |-14------17-----|-12------10-----|-14------10-----|-12-----10-----9-------|
B |-x-[x12]-x-[x4]-|-x-[x12]-x-[x4]-|-x-[x12]-x-[x4]-|-x-[x8]-x-[x4]-x-[x4]--|
F#|-12------15-----|-10------8------|-12------8------|-10-----8------7-------|
B |----------------|----------------|----------------|-----------------------|

Guitar 2
c#|-------------|-------------|------------|-------------------|
G#|-------------|-------------|------------|-------------------|
E |-------------|-------------|------------|-------------------|
B |--12---------|--10---------|--3---------|--8-------10-------|
F#|--12--[x16]--|--10--[x16]--|--3--[x16]--|--8-[x8]--10-[x8]--|
B |--12---------|--10---------|--3---------|--8-------10-------|



Bridge (2:09) x2
c#|-------------------------------------------|
G#|-------------------------------------------|
E |-------------------------------------------|
B |-------------------------------------------|  [x3]
F#|-------------------------------------------|
B |-10-0-10-0-10-12-0-15b^-0-12-0-10-0-10-12--|

c#|-------------------------------------|
G#|-------------------------------------|
E |-------------------------------------|
B |-8-8-8-8--7-7-7-7--3-3-3-3--2-2-2-2--|
F#|-8-8-8-8--7-7-7-7--3-3-3-3--2-2-2-2--|
B |-8-8-8-8--7-7-7-7--3-3-3-3--2-2-2-2--|


Final Chorus A (2:32)
No guitar

Final Chorus B (2:42)
Guitar 1
c#|----------------|----------------|----------------|-----------------------|
G#|----------------|----------------|----------------|-----------------------|
E |-14------17-----|-12------10-----|-14------10-----|-12-----10-----9-------|
B |-x-[x12]-x-[x4]-|-x-[x12]-x-[x4]-|-x-[x12]-x-[x4]-|-x-[x8]-x-[x4]-x-[x4]--|
F#|-12------15-----|-10------8------|-12------8------|-10-----8------7-------|
B |----------------|----------------|----------------|-----------------------|

Guitar 2
c#|-------------|-------------|------------|-------------------|
G#|-------------|-------------|------------|-------------------|
E |-------------|-------------|------------|-------------------|
B |--12---------|--10---------|--3---------|--8-------10-------|
F#|--12--[x16]--|--10--[x16]--|--3--[x16]--|--8-[x8]--10-[x8]--|
B |--12---------|--10---------|--3---------|--8-------10-------|


Outro (3:05)
c#|-------------------------------------------|
G#|-------------------------------------------|
E |-------------------------------------------|
B |-------------------------------------------|  [x3]
F#|-------------------------------------------|
B |-10-0-10-0-10-12-0-15b^-0-12-0-10-0-10-12--|

c#|-------------------------------------------|
G#|-------------------------------------------|
E |-------------------------------------------|
B |-8-8-8-8--7-7-7-7--3-3-3-3--2-2-2-2--0~~---|
F#|-8-8-8-8--7-7-7-7--3-3-3-3--2-2-2-2--0~~---|
B |-8-8-8-8--7-7-7-7--3-3-3-3--2-2-2-2--0~~---|
Tap to rate this tab
 
# A B C D E F G H I J K L M N O P Q R S T U V W X Y Z