Song name
# A B C D E F G H I J K L M N O P Q R S T U V W X Y Z

Anberlin - Readyfuels tab

Anberlin - Readyfuels

by: the Freakinani, Iamjonscranium
with solo by: Buv

there were some wrong chords in the last tab.  if you listen to the individual notes in
the chords, you will hear that this is more accurate, but no guarantees or waranties of
any sort.  i used the tab by 'sonixon' and made the changes, so the format is kind of
the same.  the rythm is easy to get yourself.  i copied the solo from 'Buv.'

their new cd 'never take friendship personal' is now available.

Drop D tuned

Intro
|-----------------------------------------------------------------------------|
|-----------------------------------------------------------------------------|
|-----------------------------------------------------------------------------|
|-----------------------------------------------------------------------------|
|12-----------10----------12-----------10----------12-----------10------------|
|---12-10-12-----12-10-0-----12-10-12-----12-10-0-----12-10-12-----12-10-0----|
  D                        A                        A#

|--------------------------| |----------------------|
|--------------------------| |----------------------|
|--------------------------| |-7777777777777777-----|
|--------------------------| |----------------------|
|-12-----------10----------| |-5555555555555555--8\-|
|-----12-10-12-----12-10-0-| |----------------------|
  A#


Verse
|----------------------------------|
|----------------------------------|
|-----------------------------12\--|
|-----------------------------12\--|
|-0--8--7--10----0--8--7--10--10\--|
|-0--8--7--10----0--8--7--10--10\--|

|-------------------------------------------|
|-----------------------------------33-33-3-|
|-----------------------------12\---22-22-2-|
|-0--8--7--10----0--8--7--10--12\---00-00-0-|
|-0--8--7--10----0--8--7--10--10\---00-00-0-|
|-0--8--7--10----0--8--7--10--10\---00-00-0-|


Chorus
|-----------------------------------------------------------|
|----------5--6------------5--6-----------------------------|
|10--5--7--4--5---5--5--7--4--5---5--5--5-------------------|
|10--5--7--2--3---3--5--7--2--3---3--5--5--3--5---0-3-0-00--|
|8---3--5---------3--3--5---------3--3--3--3--5---0-3-0-00--|
|---------------------------------------3--3--5---0-3-0-00--|


Bridge & solo chords
|-8----------|
|-8---13--3--|
|-10--12--2--|
|-10--10--0--|
|-8---10--0--|
|-8---10--0--|


Solo (Buv's solo tab)
[------------------------------------------------------8~--8----------------]
[-----------10~------8---------------------------------------11-10----10----]
[--9b10b9-7-----9-10---10-9b10b9-9b10b9-7----7--9b10b9-------------12----12b]
[-----------------------------------------10--------------------------------]
[---------------------------------------------------------------------------]
[---------------------------------------------------------------------------]

[--------------------------------8------------------------------------------]
[--10-----10-----10----------------------10--10p8-10p8-10p8-10p8-10p8--10p8-]
[-----12b----12b----12b--7--9-10---10\12--------------9---------9----9------]
[---------------------------------------------------------------------------]
[---------------------------------------------------------------------------]
[---------------------------------------------------------------------------]

[----------------------12p10-12p10--12p10-12p10--12p10---12p10-12p10--12p10-]
[-10p8-10pb-10p8-10p8-------------12-----------12-----12------------12------]
[-----9---------9----9------------------------------------------------------]
[---------------------------------------------------------------------------]
[---------------------------------------------------------------------------]
[---------------------------------------------------------------------------]

[12p10--12p10----------------------17----17----17----17----]
[-----12-----12---10-12b-10~~---19b---19b---19b---19b---19b]
[----------------------------------------------------------]
[----------------------------------------------------------]
[----------------------------------------------------------]
[----------------------------------------------------------]

solo end..
|--------------------|
|-------5--6---------|
|-3--5--4--5---------| ..and into final chorus.
|-3--5--2--3--3-2----|
|-1--3------------3--|
|--------------------|

for the last chorus, replace
|----|   |---|       |---|
|----|   |---|       |---|
|-10-| & |-5-| with  |-3-| at the beginning of each run.
|-10-|   |-3-|       |-3-|
|-8--|   |-3-|       |-1-|
|----|   |---|       |---|
Tap to rate this tab
# A B C D E F G H I J K L M N O P Q R S T U V W X Y Z