Song name
# A B C D E F G H I J K L M N O P Q R S T U V W X Y Z

Anberlin - Never Take Friendship Personal tab

Help us improve GuitareTab! Take a short survey!
		     Never Take Friendship Personal - Anberlin
-------------------------------------------------------------------------------
Tabbed by: cheeseness
Email: h.ragnauth@ukonline.co.uk

Tuning: Drop D

FOLLOW EXACTLY
PLEASE RATE
YOU ARE GOING TO HAVE TO FIGURE OUT WHEN GUITAR 2 COMES IN
p.m - palm mute

Guitar 1
E|------------------------------|
B|------------------------------|
G|------------------------------|
D|-7-7-7--7-7-7--7-7-7--7-7-7---|
A|-7-7-7--7-7-7--7-7-7--7-7-7---| x4
D|-7-7-7--7-7-7--7-7-7--7-7-7---|

Guitar 2
|-----------------3-----0--------3-----0-------3-----0------------------|
|---------------1-----3--------1-----3-------1-----3-----1-0---0-1------|
|-----------2-2-----2------2-2-----2-----2-2-----2-----2-----2----------|
|-7-7-7-----------------------------------------------------------------|
|-7-7-7-x4--------------------------------------------------------------|
|-7-7-7-----------------------------------------------------------------|



Guitar 1
|-----------------------------------------------------------|
|-----------------------------------------------------------|
|-----------------------------7-7-7--7-7-7--7-7-7--7-7-7----|
|-3-3-3--3-3-3--3-3-3--3-3-3--7-7-7--7-7-7--7-7-7--7-7-7----|
|-3-3-3--3-3-3--3-3-3--3-3-3--5-5-5--5-5-5--5-5-5--5-5-5----|
|-3-3-3--3-3-3--3-3-3--3-3-3--------------------------------|

Guitar 2
|-------3-------0-------3-------0-------3-------0--------------|
|-----1-------3-------1-------3-------1-------3-----1-0---0-1--|
|-2-2-----2-2-----2-2-----2-2-----2-2-----2-2-----2-----2------|
|--------------------------------------------------------------|
|--------------------------------------------------------------|
|--------------------------------------------------------------|



Guitar 1
|-----------------------------------------------------------------|
|-----------------------------------------------------------------|
|-----------------------------------------------------------------|
|-7-7-7-7--7-7-7-7----9-9-9-9--9-9-9-9--10-10-10-10--10-10-10-10--|
|-7-7-7-7--7-7-7-7-x2-7-7-7-7--7-7-7-7--7--7--7--7---7--7--7--7---|
|-7-7-7-7--7-7-7-7----7-7-7-7--7-7-7-7--7--7--7--7---7--7--7--7---|

Guitar 2
|-------3-------0-------3-------0-------3-------0--------------|
|-----1-------3-------1-------3-------1-------3-----1-0---0-1--|
|-2-2-----2-2-----2-2-----2-2-----2-2-----2-2-----2-----2------|
|--------------------------------------------------------------|
|--------------------------------------------------------------|
|--------------------------------------------------------------|



Guitar 1
|-------------------------------------------|
|-------------------------------------------|
|----------------------7-7-7-7--7-7-7-7-----|
|-3-3-3-3--3-3-3-3-----7-7-7-7--7-7-7-7-x2--|
|-3-3-3-3--3-3-3-3-x2--5-5-5-5--5-5-5-5-----|
|-3-3-3-3--3-3-3-3--------------------------|

Guitar 2
|-------3-------0-------3-------0-------3-------0--------------|
|-----1-------3-------1-------3-------1-------3-----1-0---0-1--|
|-2-2-----2-2-----2-2-----2-2-----2-2-----2-2-----2-----2------|
|--------------------------------------------------------------|
|--------------------------------------------------------------|
|--------------------------------------------------------------|



Guitar 1
E|------------------------------|
B|------------------------------|
G|------------------------------|
D|-7-7-7--7-7-7--7-7-7--7-7-7---|
A|-7-7-7--7-7-7--7-7-7--7-7-7---| x2
D|-7-7-7--7-7-7--7-7-7--7-7-7---|

Guitar 2
|-----------------------|
|-----------------------|
|--8/9---7---5------2---|
|--xxx---x---x------x---|
|--6/7---5---3------0---|
|-----------------------|




Both Guitars
|---------------------------------------------------------------------------|
|---------------------------------------------------------------------------|
|---------------------7-7-7-----5-5-5-----7-7-7-----------------------------|
|-3-3-3-----0-0-0-----7-7-7-x4--5-5-5-x8--7-7-7-x4--------------------------|
|-3-3-3-x4--0-0-0-x4--5-5-5-----3-3-3-----5-5-5-----------------------------|
|-3-3-3-----0-0-0-----------------------------------------------------------|




Guitar 1
|--------------------------------------|
|--------------------------------------|
|--------------------------------------|
|-7-7-7-7-----3-3-3-3-----0-0-0-0------|
|-7-7-7-7-x8--3-3-3-3-x4--0-0-0-0-x4---|
|-7-7-7-7-----3-3-3-3-----0-0-0-0------|

Guitar 2
|-------------0--0--0--0------|
|-3--3--3--3------------------|
|--2--2--2--2--2--2--2--2-----| x4
|-----------------------------|
|-----------------------------|
|-----------------------------|




Guitar 1
|--------------------------------------|
|--------------------------------------|
|--------------------------------------|
|-7-7-7-7-----3-3-3-3-----0-0-0-0------|
|-7-7-7-7-x8--3-3-3-3-x4--0-0-0-0-x4---|
|-7-7-7-7-----3-3-3-3-----0-0-0-0------|

Guitar 2
|-------3-------0-------3-------0-------3-------0--------------|
|-----1-------3-------1-------3-------1-------3-----1-0---0-1--|
|-2-2-----2-2-----2-2-----2-2-----2-2-----2-2-----2-----2------|
|--------------------------------------------------------------| x2
|--------------------------------------------------------------|
|--------------------------------------------------------------|



Both Guitars
E|------------------------------|
B|------------------------------|
G|------------------------------|
D|-7-7-7--7-7-7--7-7-7--7-7-7---|
A|-7-7-7--7-7-7--7-7-7--7-7-7---| x2
D|-7-7-7--7-7-7--7-7-7--7-7-7---|


Both Guitars
|---------------------------------------------------------------------------|
|---------------------------------------------------10-10-10----------------|
|---------------------7-7-7-----5-5-5-----7-7-7-----9--9--9-x3--------------|
|-3-3-3-----0-0-0-----7-7-7-x4--5-5-5-x8--7-7-7-x4--7--7--7-----------------|
|-3-3-3-x4--0-0-0-x4--5-5-5-----3-3-3-----5-5-5-----------------------------|
|-3-3-3-----0-0-0-----------------------------------------------------------|




Guitar 1
|--------------------------------------|
|--------------------------------------|
|--------------------------------------|
|-7-7-7-7-----3-3-3-3-----0-0-0-0------|
|-7-7-7-7-x8--3-3-3-3-x4--0-0-0-0-x4---|
|-7-7-7-7-----3-3-3-3-----0-0-0-0------|

Guitar 2
|-------------0--0--0--0------|
|-3--3--3--3------------------|
|--2--2--2--2--2--2--2--2-----| x4
|-----------------------------|
|-----------------------------|
|-----------------------------|




Guitar 1
|--------------------------------------|
|--------------------------------------|
|--------------------------------------|
|-7-7-7-7-----3-3-3-3-----0-0-0-0------|
|-7-7-7-7-x8--3-3-3-3-x4--0-0-0-0-x4---|
|-7-7-7-7-----3-3-3-3-----0-0-0-0------|

Guitar 2
|-------3-------0-------3-------0-------3-------0--------------|
|-----1-------3-------1-------3-------1-------3-----1-0---0-1--|
|-2-2-----2-2-----2-2-----2-2-----2-2-----2-2-----2-----2------|
|--------------------------------------------------------------| x2
|--------------------------------------------------------------|
|--------------------------------------------------------------|



Both Guitars
|---------------------------------------------------------------------------|
|---------------------------------------------------------------------------|
|--9~--------------9~-----------------------5-5-5-5--5-5-5-5--7-7-7-7-------|
|--7~----3---0~----7~----3--0-0-0-0-0-0-7---5-5-5-5--5-5-5-5--7-7-7-7-------|
|--7~----3---0~----7~----3--0-0-0-0-0-0-7---3-3-3-3--3-3-3-3--5-5-5-5-------|
|--7~----3---0~----7~----3--0-0-0-0-0-0-7-----------------------------------|
                            p.m. . . . 
Both Guitars
|---------------------------------------------------------------------------|
|---------------------------------------------------------------------------|
|-9-9-9-9--4-4-4-4--4-4-4-4--5-5-5-5--7-7-7-7--5-5-5-5--5-5-5-5--7-7-7-7----|
|-9-9-9-9--4-4-4-4--4-4-4-4--5-5-5-5--7-7-7-7--5-5-5-5--5-5-5-5--7-7-7-7----|
|-7-7-7-7--2-2-2-2--2-2-2-2--3-3-3-3--5-5-5-5--3-3-3-3--3-3-3-3--5-5-5-5----|
|---------------------------------------------------------------------------|

Both Guitars
|----------------------------------------------------------------------------|
|----------------------------------------------------------------------------|
|-9-9-9-9-----4/5-------5-5-5-5--5-5-5-5--7-7-7-7--9-9-9-9--4-4-4-4--4-4-4-4-|
|-9-9-9-9--2--xxx--3~---5-5-5-5--5-5-5-5--7-7-7-7--9-9-9-9--4-4-4-4--4-4-4-4-|
|-7-7-7-7--2--2/3--3~---3-3-3-3--3-3-3-3--5-5-5-5--7-7-7-7--2-2-2-2--2-2-2-2-|
|----------2-------3~--------------------------------------------------------|

Both Guitars
|---------------------------------------------------------------------------|
|---------------------------------------------------------------------------|
|-5-5-5-5--7-7-7-7--9-9-9-9--9-9-9/12--12-12-12--12-12-12-12----------------|
|-5-5-5-5--7-7-7-7--9-9-9-9--9-9-9/12--12-12-12--12-12-12-12----------------|
|-3-3-3-3--5-5-5-5--7-7-7-7--7-7-7/10--10-10-10--10-10-10-10----------------|
|---------------------------------------------------------------------------|




Guitar 1 or 2
|-------------0--0--0--0------|
|-3--3--3--3------------------|
|--2--2--2--2--2--2--2--2-----| x2
|-----------------------------|
|-----------------------------|
|-----------------------------|




Guitar 1
|--------------------------------------|
|--------------------------------------|
|--------------------------------------|
|-7-7-7-7-----3-3-3-3-----0-0-0-0------|
|-7-7-7-7-x8--3-3-3-3-x4--0-0-0-0-x4---|
|-7-7-7-7-----3-3-3-3-----0-0-0-0------|

Guitar 2
|-------------0--0--0--0------|
|-3--3--3--3------------------|
|--2--2--2--2--2--2--2--2-----| x4
|-----------------------------|
|-----------------------------|
|-----------------------------|




Guitar 1
|--------------------------------------|
|--------------------------------------|
|--------------------------------------|
|-7-7-7-7-----3-3-3-3-----0-0-0-0------|
|-7-7-7-7-x8--3-3-3-3-x4--0-0-0-0-x4---|
|-7-7-7-7-----3-3-3-3-----0-0-0-0------|

Guitar 2
|-------3-------0-------3-------0-------3-------0--------------|
|-----1-------3-------1-------3-------1-------3-----1-0---0-1--|
|-2-2-----2-2-----2-2-----2-2-----2-2-----2-2-----2-----2------|
|--------------------------------------------------------------| x2
|--------------------------------------------------------------|
|--------------------------------------------------------------|



Guitar 1
|---------------------------------------------------------------------------|
|---------------------------------------------------------------------------|
|-9-9-9-9-------------------------------------------------------------------|
|-9-9-9-9-x8--3-3-3-3----0--0-0---------------------------------------------|
|-7-7-7-7-----3-3-3-3-x4-0--0-0---------------------------------------------|
|-------------3-3-3-3----0--0-0---------------------------------------------|

Guitar 2
|-------3-------0-------3-------0-------3-------0--------------|
|-----1-------3-------1-------3-------1-------3-----1-0---0-1--|
|-2-2-----2-2-----2-2-----2-2-----2-2-----2-2-----2-----2------|
|--------------------------------------------------------------| x2
|--------------------------------------------------------------|
|--------------------------------------------------------------|
End Guitar 2 half way through second time



Related for Never Take Friendship Personal tab