Song name
# A B C D E F G H I J K L M N O P Q R S T U V W X Y Z

Anberlin - Foreign Language tab

This is the song Foreign Language by Anberlin, I'm pretty sure it's correct
Note that the intro is played with bar chords

Intro:
---5----x-----5---5---5---5-----x-----5---5---5---5--------------|
---7----x-----7---5---7---7-----x-----7---5---7---5--------------|
---7----x-----7---7---7---7-----x-----7---7---7---6--------------|
---7----x-----7---7---7---7-----x-----7---7---7---7--------------|
---5----x-----5---5---5---5-----x-----5---5---5---7--------------|
---5----x-----5---5---5---5-----x-----5---5---5---5--------------|

Find out the rhythm by yourself

Intro Solo:
--------5-----5---5-------------|
----------------------7^-5------|
--7--7-----7----7---------------| x3
--------------------------------|
--------------------------------|
--------------------------------|


--------------------------------|
-------5-----5---5^-------------|
--7-7-----7----------7-7--------|
--------------------------------|
--------------------------------|
--------------------------------|


Verse:
---5----x-----5---5---5---5-----x-----5---5---5--------|
---7----x-----7---5---7---7-----x-----7---5---7--------|
---7----x-----7---7---7---7-----x-----7---7---7--------|
---7----x-----7---7---7---7-----x-----7---7---7--------|
---5----x-----5---5---5---5-----x-----5---5---5--------|
---5----x-----5---5---5---5-----x-----5---5---5--------|
Boys speak in rhythm, and girls in

---------------------------|
---------------------------|
---------------------------|
----5--------7-------------|
----5-x8-----7-x8----------|
----3--------5-------------|
Code, do doo doo doo, do doo doo doo

--------------------------|
--------------------------|
--7-----4-----------------|
--7-----4-----5-----7-----|
--5-----2-----5-----7-----|
--------------3-----5-----|

Bridge/Chorus :
(just a variation of these 2 chords, find the order you play them in)
---------------------------|
---------------------------|
---------------------------|
--------5--------7---------|
--------5--------7---------|
--------3--------5---------|

Verse 2:
(same chords as end of verse 1)
--------------------------|
--------------------------|
--7-----4-----------------|
--7-----4-----5-----7-----|
--5-----2-----5-----7-----|
--------------3-----5-----|

End on:
------------|
------------|
------------|
-----5------|
-----5------|
-----3------|
Tap to rate this tab
# A B C D E F G H I J K L M N O P Q R S T U V W X Y Z