Song name
# A B C D E F G H I J K L M N O P Q R S T U V W X Y Z

Anberlin - Undeveloped Story tab

The Undeveloped Story - Anberlin


Transcribed by Joel Lawson

 Words and Music by Anberlin

 

Gtr I (D A D G B E) - 'Untitled'
Gtr II (D A D G B E) - 'Untitled'
Gtr III (D A D G B E) - 'Untitled'
Gtr IV (D A D G B E) - 'Untitled'


 Intro
  Q=167
  N.C.
 4/4
  Gtr I
  E E E E E E E E   E E E E E E E E   E E E E E E E E   E E E E E E E E
|-----------------|-----------------|-----------------|-----------------|
|-----------------|-----------------|-----------------|-----------------|
|-----------------|-----------------|-----------------|-----------------|
|-----------------|-------------5h7-|---7-7---7---5h7-|---7-7---7---5h7-|
|---5-5---5---3h5-|---5-5---5-------|-----------------|-----------------|
|-0-----0---0-----|-0-----0---0-----|-0-----0---0-----|-0-----0---0-----|


    D5
    Gtr II
    E E E E E E E E   E E E E E E E E
||------------------|-----------------|
||o-----------------|-----------------|
||------------------|-----------------|
||------------------|-------------5h7-|
||o---5-5---5---3h5-|---5-5---5-------|
||--0-----0---0-----|-0-----0---0-----|
|
|   Gtr III
|   Q   Q   E E E E   Q   Q   E E E E
||------------------|-----------------|
||o-----------------|-----------------|
||------------------|-----------------|
||--0---0---0-0-0-0-|-0---0---0-0-0-0-|
||o-0---0---0-0-0-0-|-0---0---0-0-0-0-|
||--0---0---0-0-0-0-|-0---0---0-0-0-0-|


  Bbsus2                  C5
   E E  E E  E  E  E  E    E E  E E  E  E  E  E
|-----------------------|-------------------------||
|-----------------------|------------------------o||
|-----------------------|-------------------------||
|----7--7----7-----5h=7-|----7--7----7-----5h=7---||
|-----------------------|------------------------o||
|--0------0-----0-------|--0------0-----0---------||
|
|  Q    Q    E  E  E  E    Q    Q    E  E  E  E
|-----------------------|-------------------------||
|-----------------------|------------------------o||
|-----------------------|-------------------------||
|-10---10---10-10-10-10-|-10---10---10-10-10-10---||
|--8----8----8--8--8--8-|-10---10---10-10-10-10--o||
|--8----8----8--8--8--8-|-10---10---10-10-10-10---||


   Verse
    N.C.
    E E E E E E E E   E E E E E E E E
||------------------|-----------------|
||o-----------------|-----------------|
||--7-7-7-7-7-7-7-7-|-7-7-7-7-7-7-7-7-|
||------------------|-----------------|
||o-5-5-5-5-5-5-5-5-|-5-5-5-5-5-5-5-5-|
||------------------|-----------------|


   E  E  E  E  E  E  E  E   E E E E E E E E
|-------------------------|------------------|
|-------------------------|------------------|
|-10-10-10-10-10-10-10-10-|-9-9-9-9-9-9-9-9--|
|-------------------------|------------------|
|--8--8--8--8--8--8--8--8-|-7-7-7-7-7-7-7-7--|
|-------------------------|------------------|


  E E E E E E E E   E E E E E E E E
|-----------------|-----------------|
|-----------------|-----------------|
|-5-5-5-5-5-5-5-5-|-5-5-5-5-5-5-5-5-|
|-----------------|-----------------|
|-3-3-3-3-3-3-3-3-|-3-3-3-3-3-3-3-3-|
|-----------------|-----------------|


  1.
   E  E  E  E  E  E  E  E   E E E E E E E E
|-------------------------|------------------||
|-------------------------|-----------------o||
|-10-10-10-10-10-10-10-10-|-9-9-9-9-9-9-9-9--||
|-------------------------|------------------||
|--8--8--8--8--8--8--8--8-|-7-7-7-7-7-7-7-7-o||
|-------------------------|------------------||


  2.
    Bb5 C5       Bb5   C5    N.C.
  E E E  E  Q  E E   E  E  E E E E  E  E
|------------------|---------------------|
|------------------|---------------------|
|------------------|------------------10-|
|---8-8-10-10----8-|-8-10-10-------------|
|---8-8-10-10----8-|-8-10-10---7-8-10--8-|
|---8-8-10-10----8-|-8-10-10-0-----------|


 Pre-Chorus
  N.C.                                       Csus2
   +E   E E E E E E  E    +E   E E E  E  E E  E
|----------------------|------------------------|
|----------------------|------------------------|
|-(10)-10-----------10-|-(10)-10-----12-12------|
|----------------------|---------------------12-|
|--(8)--8------------8-|--(8)--8-----10-10---10-|
|---------0-0-0-0-0----|---------0-0-------0-10-|


                                              N.C.
   +E   E  E  E  E  E  E  E   E E E E  E  E E  E
|---------------------------|--------------------|
|---------------------------|--------------------|
|---------------------------|-----------------10-|
|-(12)-12-12-12-12-12-12-12-|-x-x-x-x-12-12-x----|
|-(10)-10-10-10-10-10-10-10-|-x-x-x-x-10-10-x--8-|
|-(10)-10-10-10-10-10-10-10-|-x-x-x-x-10-10-x----|


                                             Csus2
   +E   E E E E E E  E    +E   E E E  E  E E  E
|----------------------|------------------------|
|----------------------|------------------------|
|-(10)-10-----------10-|-(10)-10-----12-12------|
|----------------------|---------------------12-|
|--(8)--8------------8-|--(8)--8-----10-10---10-|
|---------0-0-0-0-0----|---------0-0-------0-10-|
|
| Gtr III
|   W                      W
|----------------------|------------------------|
|----------------------|------------------------|
|----------------------|------------------------|
|----------------------|------------------------|
|----------------------|------------------------|
|----------------------|------------------------|


                                              Bbsus2
   +E   E  E  E  E  E  E  E   E E E E  E  E E  E
|---------------------------|--------------------|
|---------------------------|--------------------|
|---------------------------|--------------------|
|-(12)-12-12-12-12-12-12-12-|-x-x-x-x-12-12-x-10-|
|-(10)-10-10-10-10-10-10-10-|-x-x-x-x-10-10-x--8-|
|-(10)-10-10-10-10-10-10-10-|-x-x-x-x-10-10-x--8-|
|
|   W                         H        Q    E  E
|---------------------------|--------------------|
|---------------------------|--------------------|
|---------------------------|-----------------10-|
|---------------------------|--------------------|
|---------------------------|--------------------|
|---------------------------|--------------------|


 Chorus
  Bbsus2                                         C5
   +Q    Q   E  E  E  E    +E   E  Q     E  E  E  E
|-----------------------|---------------------------|
|-----------------------|---------------------------|
|-----------------------|---------------------------|
|-(10)--10--10-10-10-10-|-(10)-10-10----10-10-10-10-|
|--(8)---8---8--8--8--8-|--(8)--8--8-----8--8--8-10-|
|--(8)---8---8--8--8--8-|--(8)--8--8-----8--8--8-10-|
|
|  +Q    Q   Q     E  E    +E   E  E  E  E  E  E  E
|-----------------------|---------------------------|
|-----------------------|---------------------------|
|-(10)---9-----------10-|-(10)--9--------9h10-12-10-|
|-----------10----10----|---------12p10-------------|
|-----------------------|---------------------------|
|-----------------------|---------------------------|


                                                   Bbsus2
   +Q    Q   E  E  E    E    +E   E  Q     E  E  E  E
|-------------------------|---------------------------|
|-------------------------|---------------------------|
|-------------------------|---------------------------|
|-(10)--10--10-10-10---10-|-(10)-10-10----10-10-10-10-|
|-(10)--10--10-10-10---10-|-(10)-10-10----10-10-10--8-|
|-(10)--10--10-10-10---10-|-(10)-10-10----10-10-10--8-|
|
|  +Q    Q   Q     E a  E    +E   E  E  E  E  E  E  E
|-------------------------|---------------------------|
|-------------------------|---------------------------|
|-(10)---9-----------9h10-|-(10)--9--------9h10-12-10-|
|-----------10----10------|---------12p10-------------|
|-------------------------|---------------------------|
|-------------------------|---------------------------|


                                                 C5
   +Q    Q   E  E  E  E    +E   E  Q     E  E  E  E
|-----------------------|---------------------------|
|-----------------------|---------------------------|
|-----------------------|---------------------------|
|-(10)--10--10-10-10-10-|-(10)-10-10----10-10-10-10-|
|--(8)---8---8--8--8--8-|--(8)--8--8-----8--8--8-10-|
|--(8)---8---8--8--8--8-|--(8)--8--8-----8--8--8-10-|
|
|  +Q    Q   Q     E  E    +E   E  E  E  E  E  E  E
|-----------------------|---------------------------|
|-----------------------|---------------------------|
|-(10)---9-----------10-|-(10)--9--------9h10-12-10-|
|-----------10----10----|---------12p10-------------|
|-----------------------|---------------------------|
|-----------------------|---------------------------|


          D5       C5         D5
   +E   E H    +E   E    E  E H.
|---------------------|-------------|
|---------------------|-------------|
|---------------------|-------------|
|-(10)-10-0----(0)-10-|-10-10-0-----|
|-(10)-10-0----(0)-10-|-10-10-0-----|
|-(10)-10-0----(0)-10-|-10-10-0-----|
|
|   W                    W
|---------------------|-------------|
|---------------------|-------------|
|---------------------|-------------|
|---------------------|-------------|
|---------------------|-------------|
|---------------------|-------------|


 Pre-Verse
  N.C.
  E E E E E E E E   E E E E +E  E E E
|-----------------|-------------------|
|-----------------|-------------------|
|-7-7-5-7-7-7---7-|-7-7-5-7-(7)-x-x-x-|
|-----------------|-------------------|
|-5-5-3-5-5-5---5-|-5-5-3-5-(5)-x-x-x-|
|-----------------|-------------------|


                                  Bbsus2
  E E E E E E E E   E E E E E E E  E
|-----------------|------------------|
|-----------------|------------------|
|-7-7-5-7-7-7---7-|-7-7-5-7-7-7------|
|-----------------|---------------10-|
|-5-5-3-5-5-5---5-|-5-5-3-5-5-5----8-|
|-----------------|----------------8-|


                      C5      Bb5 C5         N.C.
   E  E  E  E  E  E E  E    E E E  E  E  E E E
|------------------------|---------------------|
|------------------------|---------------------|
|------------------------|-------------------7-|
|-10-10-10-10-10-10---10-|-10-8-8-10-10-10-----|
|--8--8--8--8--8--8---10-|-10-8-8-10-10-10---5-|
|--8--8--8--8--8--8---10-|-10-8-8-10-10-10-----|


                                  Bbsus2
  E E E E E E E E   E E E E E E E  E
|-----------------|------------------|
|-----------------|------------------|
|-7-7-5-7-7-7---7-|-7-7-5-7-7-7------|
|-----------------|---------------10-|
|-5-5-3-5-5-5---5-|-5-5-3-5-5-5----8-|
|-----------------|----------------8-|
|
| Gtr III
| W                 W
|-----------------|------------------|
|-----------------|------------------|
|-----------------|------------------|
|-----------------|------------------|
|-----------------|------------------|
|-----------------|------------------|


                      C5       Bb5 C5         N.C.
   E  E  E  E  E  E E  E    E  E E  E  E  E E  E
|------------------------|-----------------------|
|------------------------|-----------------------|
|------------------------|---------------------7-|
|-10-10-10-10-10-10---10-|-10--8-8-10-10-10------|
|--8--8--8--8--8--8---10-|-10--8-8-10-10-10----5-|
|--8--8--8--8--8--8---10-|-10--8-8-10-10-10------|
|
|  W                        H.              E  E
|------------------------|-----------------------|
|------------------------|-----------------------|
|------------------------|--------------------10-|
|------------------------|-----------------------|
|------------------------|-----------------------|
|------------------------|-----------------------|


                                               Bbsus2
   +E   E E E  E  E E  E    +E   E E E  E  E E  E
|------------------------|------------------------|
|------------------------|------------------------|
|--(7)--7-5-7--7--7----7-|--(7)--7-5-7--7--7------|
|------------------------|---------------------10-|
|--(5)--5-3-5--5--5----5-|--(5)--5-3-5--5--5----8-|
|------------------------|----------------------8-|
|
|  +E   E E E  E  E E  E    +E   E E E  E  E E  E
|------------------------|------------------------|
|------------------------|------------------------|
|-(10)-10-9-9-10-10---10-|-(10)-10-9-9-10-10---10-|
|------------------------|------------------------|
|------------------------|------------------------|
|------------------------|------------------------|


                        C5      Bb5   C5         N.C.
   +E   E  E  E  E  E E  E    E  E  E  E  E  E E  E
|--------------------------|------------------------|
|--------------------------|------------------------|
|--------------------------|----------------------7-|
|-(10)-10-10-10-10-10---10-|-10--8--8-10-10-10------|
|--(8)--8--8--8--8--8---10-|-10--8--8-10-10-10----5-|
|--(8)--8--8--8--8--8---10-|-10--8--8-10-10-10------|
|
|   E   E  E  E  E  E E  E    E  E  E  E  E  E E  E
|--------------------------|------------------------|
|--------------------------|------------------------|
|--10--10--9--9-10-10---10-|-12-12-12-12-12-12---10-|
|--------------------------|------------------------|
|--------------------------|------------------------|
|--------------------------|------------------------|


                                               Bbsus2
   +E   E E E  E  E E  E     E   E E E  E  E E  E
|------------------------|------------------------|
|------------------------|------------------------|
|--(7)--7-5-7--7--7----7-|---7---7-5-7--7--7------|
|------------------------|---------------------10-|
|--(5)--5-3-5--5--5----5-|---5---5-3-5--5--5----8-|
|------------------------|----------------------8-|
|
|  +E   E E E  E  E E  E    +E   E E E  E  E E  E
|------------------------|------------------------|
|------------------------|------------------------|
|-(10)-10-9-9-10-10---10-|-(10)-10-9-9-10-10---10-|
|------------------------|------------------------|
|------------------------|------------------------|
|------------------------|------------------------|


                        C5      Bb5   C5                         Bbsus2
                                          |-----------3-----------|
    E   E  E  E  E  E E  E    E  E  E  E  Q           Q           Q
|--------------------------|----------------------------------------|
|--------------------------|----------------------------------------|
|--------------------------|----------------------------------------|
|--10--10-10-10-10-10---10-|-10--8--8-10-10----------10----------10-|
|---8---8--8--8--8--8---10-|-10--8--8-10-10----------10-----------8-|
|---8---8--8--8--8--8---10-|-10--8--8-10-10----------10-----------8-|
|
|                                         |-----------3-----------|
|  +E   E  E  E  E  E E  E    E  E  E  E  E     +E   +E      +E   Q
|--------------------------|----------------------------------------|
|--------------------------|----------------------------------------|
|-(10)-10--9--9-10-10---10-|-12-12-12-12-12b13r(12)-(12)b13r(12)-10-|
|--------------------------|----------------------------------------|
|--------------------------|----------------------------------------|
|--------------------------|----------------------------------------|


 Chorus
  Bbsus2                                         C5
   +Q    Q   E  E  E  E    +E   E  Q     E  E  E  E
|-----------------------|---------------------------|
|-----------------------|---------------------------|
|-----------------------|---------------------------|
|-(10)--10--10-10-10-10-|-(10)-10-10----10-10-10-10-|
|--(8)---8---8--8--8--8-|--(8)--8--8-----8--8--8-10-|
|--(8)---8---8--8--8--8-|--(8)--8--8-----8--8--8-10-|
|
|  +Q    Q   Q     E  E    +E   E  E  E  E  E  E  E
|-----------------------|---------------------------|
|-----------------------|---------------------------|
|-(10)---9-----------10-|-(10)--9--------9h10-12-10-|
|-----------10----10----|---------12p10-------------|
|-----------------------|---------------------------|
|-----------------------|---------------------------|


                                                   Bbsus2
   +Q    Q   E  E  E    E    +E   E  Q     E  E  E  E
|-------------------------|---------------------------|
|-------------------------|---------------------------|
|-------------------------|---------------------------|
|-(10)--10--10-10-10---10-|-(10)-10-10----10-10-10-10-|
|-(10)--10--10-10-10---10-|-(10)-10-10----10-10-10--8-|
|-(10)--10--10-10-10---10-|-(10)-10-10----10-10-10--8-|
|
|  +Q    Q   Q     E a  E    +E   E  E  E  E  E  E  E
|-------------------------|---------------------------|
|-------------------------|---------------------------|
|-(10)---9-----------9h10-|-(10)--9--------9h10-12-10-|
|-----------10----10------|---------12p10-------------|
|-------------------------|---------------------------|
|-------------------------|---------------------------|


                                                 C5
   +Q    Q   E  E  E  E    +E   E  Q     E  E  E  E
|-----------------------|---------------------------|
|-----------------------|---------------------------|
|-----------------------|---------------------------|
|-(10)--10--10-10-10-10-|-(10)-10-10----10-10-10-10-|
|--(8)---8---8--8--8--8-|--(8)--8--8-----8--8--8-10-|
|--(8)---8---8--8--8--8-|--(8)--8--8-----8--8--8-10-|
|
|  +Q    Q   Q     E  E    +E   E  E  E  E  E  E  E
|-----------------------|---------------------------|
|-----------------------|---------------------------|
|-(10)---9-----------10-|-(10)--9--------9h10-12-10-|
|-----------10----10----|---------12p10-------------|
|-----------------------|---------------------------|
|-----------------------|---------------------------|


          D5       C5         D5
   +E   E H    +E   E    E  E H.
|---------------------|-----------------|
|---------------------|-----------------|
|---------------------|-----------------|
|-(10)-10-0----(0)-10-|-10-10-0---------|
|-(10)-10-0----(0)-10-|-10-10-0---------|
|-(10)-10-0----(0)-10-|-10-10-0---------|
|
|   W                    H        H
|---------------------|-----------------|
|---------------------|-----------------|
|---------------------|-----------------|
|---------------------|-----------------|
|---------------------|-----------------|
|---------------------|-----------x\----|


  Bbsus2                                       C5
   Q   Q   E  E  E  E    +E   E  Q     E  E  E  E
|---------------------|---------------------------|
|---------------------|---------------------------|
|---------------------|---------------------------|
|-10--10--10-10-10-10-|-(10)-10-10----10-10-10-10-|
|--8---8---8--8--8--8-|--(8)--8--8-----8--8--8-10-|
|--8---8---8--8--8--8-|--(8)--8--8-----8--8--8-10-|
|
|  Q   Q   Q     E  E    +E   E  E  E  E  E  E  E
|---------------------|---------------------------|
|---------------------|---------------------------|
|-10---9-----------10-|-(10)--9--------9h10-12-10-|
|---------10----10----|---------12p10-------------|
|---------------------|---------------------------|
|---------------------|---------------------------|


                                                   Bbsus2
   +Q    Q   E  E  E    E    +E   E  Q     E  E  E  E
|-------------------------|---------------------------|
|-------------------------|---------------------------|
|-------------------------|---------------------------|
|-(10)--10--10-10-10---10-|-(10)-10-10----10-10-10-10-|
|-(10)--10--10-10-10---10-|-(10)-10-10----10-10-10--8-|
|-(10)--10--10-10-10---10-|-(10)-10-10----10-10-10--8-|
|
|  +Q    Q   Q     E a  E    +E   E  E  E  E  E  E  E
|-------------------------|---------------------------|
|-------------------------|---------------------------|
|-(10)---9-----------9h10-|-(10)--9--------9h10-12-10-|
|-----------10----10------|---------12p10-------------|
|-------------------------|---------------------------|
|-------------------------|---------------------------|


                                                 C5
   +Q    Q   E  E  E  E    +E   E  Q     E  E  E  E
|-----------------------|---------------------------|
|-----------------------|---------------------------|
|-----------------------|---------------------------|
|-(10)--10--10-10-10-10-|-(10)-10-10----10-10-10-10-|
|--(8)---8---8--8--8--8-|--(8)--8--8-----8--8--8-10-|
|--(8)---8---8--8--8--8-|--(8)--8--8-----8--8--8-10-|
|
|  +Q    Q   Q     E  E    +E   E  E  E  E  E  E  E
|-----------------------|---------------------------|
|-----------------------|---------------------------|
|-(10)---9-----------10-|-(10)--9--------9h10-12-10-|
|-----------10----10----|---------12p10-------------|
|-----------------------|---------------------------|
|-----------------------|---------------------------|


          D5       C5         D5
                                 PM--|
                                 |-3-|
   +E   E H    +E   E    E  E Q  Q Q Q
|---------------------|-----------------|
|---------------------|-----------------|
|---------------------|-----------------|
|-(10)-10-0----(0)-10-|-10-10-0---------|
|-(10)-10-0----(0)-10-|-10-10-0--0-0-0--|
|-(10)-10-0----(0)-10-|-10-10-0--0-0-0--|
|
|   W                    W
|---------------------|-----------------|
|---------------------|-----------------|
|---------------------|-----------------|
|---------------------|-----------------|
|---------------------|-----------------|
|---------------------|-----------------|


 Bridge
  N.C.
  Gtr I
  PM------------------------------------------------------------------|
  E E E E E E E E   E E E E E E E E   E E E E E E E E   E E E E E E E E
|-----------------|-----------------|-----------------|-----------------|
|-----------------|-----------------|-----------------|-----------------|
|-----------------|-----------------|-----------------|-----------------|
|-----------------|-------------5h7-|---7-7---7---5h7-|---7-7---7---5h7-|
|---5-5---5---3h5-|---5-5---5-------|-----------------|-----------------|
|-0-----0---0-----|-0-----0---0-----|-0-----0---0-----|-0-----0---0-----|


  D5
  PM-------------------------------------
  E E E E E E   E E   E E E E E E   E E
|-------------------|-------------------|
|-------------------|-------------------|
|-------------------|-------------------|
|-------------------|---------------5h7-|
|---5-5---5-----3h5-|---5-5---5---------|
|-0-----0---0-------|-0-----0---0-------|
|
| Gtr IV
| PM-------------------------------------
| E E E E E S S E E   E E E E E S S E E
|-------------------|-------------------|
|-------------------|-------------------|
|-------------------|-------------------|
|-7-7-7-7-7-7-7-7-7-|-7-7-7-7-7-7-7-7-7-|
|-5-5-5-5-5-5-5-5-5-|-5-5-5-5-5-5-5-5-5-|
|-------------------|-------------------|


  Bb5                   C5
 -----------------------------------------|
  E E   E E E E   E E   E E   E E E E   E E
|---------------------|---------------------|
|---------------------|---------------------|
|---------------------|---------------------|
|---7---7---7-----5h7-|---7---7---7-----5h7-|
|---------------------|---------------------|
|-0-------0---0-------|-0-------0---0-------|
|
|-----------------------------------------|
| E S S E E E S S E E   E S S E E E S S E E
|---------------------|---------------------|
|---------------------|---------------------|
|---------------------|---------------------|
|-3-3-3-3-3-3-3-3-3-3-|-5-5-5-5-5-5-5-5-5-5-|
|-1-1-1-1-1-1-1-1-1-1-|-3-3-3-3-3-3-3-3-3-3-|
|---------------------|---------------------|


  D5
  PM-------------------------------------
  E E E E E E   E E   E E E E E E   E E
|-------------------|-------------------|
|-------------------|-------------------|
|-------------------|-------------------|
|-------------------|---------------5h7-|
|---5-5---5-----3h5-|---5-5---5---------|
|-0-----0---0-------|-0-----0---0-------|
|
| PM-------------------------------------
| E E E E E S S E E   E E E E E S S E E
|-------------------|-------------------|
|-------------------|-------------------|
|-------------------|-------------------|
|-7-7-7-7-7-7-7-7-7-|-7-7-7-7-7-7-7-7-7-|
|-5-5-5-5-5-5-5-5-5-|-5-5-5-5-5-5-5-5-5-|
|-------------------|-------------------|


  Bb5                   C5
 -----------------------------------------|
  E E   E E E E   E E   E E   E E E E   E E
|---------------------|---------------------|
|---------------------|---------------------|
|---------------------|---------------------|
|---7---7---7-----5h7-|---7---7---7-----5h7-|
|---------------------|---------------------|
|-0-------0---0-------|-0-------0---0-------|
|
|-----------------------------------------|
| E S S E E E S S E E   E S S E E E S S E E
|---------------------|---------------------|
|---------------------|---------------------|
|---------------------|---------------------|
|-3-3-3-3-3-3-3-3-3-3-|-5-5-5-5-5-5-5-5-5-5-|
|-1-1-1-1-1-1-1-1-1-1-|-3-3-3-3-3-3-3-3-3-3-|
|---------------------|---------------------|


  D5                                      Bb5               C5
  PM----------------------------------------------------|
  E E E E E E   E E   E E E E E E   E E   E E E E E E E E   E E E E E E E E
|-------------------|-------------------|-----------------|-------------------|
|-------------------|-------------------|-----------------|-------------------|
|-------------------|-------------------|-----------------|-------------------|
|-------------------|---------------5h7-|---7-7---7---5h7-|---7-7---7---5h7---|
|---5-5---5-----3h5-|---5-5---5---------|-----------------|-------------------|
|-0-----0---0-------|-0-----0---0-------|-0-----0---0-----|-0-----0---0-------|
|
|                                         Gtr II
| PM----------------------------------|
| E E E E E S S E E   E E E E E S S E E   E E E E E E E E   E E E E E E E E
|-------------------|-------------------|-----------------|-------------------|
|-------------------|-------------------|-----------------|-------------------|
|-------------------|-------------------|-----------------|-------------------|
|-7-7-7-7-7-7-7-7-7-|-7-7-7-7-7-7-7-7-7-|-3-3-3-3-3-3-3-3-|-5-5-5-5-5-5-5-5---|
|-5-5-5-5-5-5-5-5-5-|-5-5-5-5-5-5-5-5-5-|-1-1-1-1-1-1-1-1-|-3-3-3-3-3-3-3-3---|
|-------------------|-------------------|-----------------|-------------------|


    Bb5 C5       Bb5   C5    N.C.
  Gtr II
  E E E  E  Q  E E   E  E  E E E E  E  E
|------------------|---------------------|
|------------------|---------------------|
|------------------|------------------10-|
|---8-8-10-10----8-|-8-10-10-------------|
|---8-8-10-10----8-|-8-10-10---7-8-10--8-|
|---8-8-10-10----8-|-8-10-10-0-----------|


 Pre-Chorus
  N.C.                                       Csus2
   +E   E E E E E E  E    +E   E E E  E  E E  E
|----------------------|------------------------|
|----------------------|------------------------|
|-(10)-10-----------10-|-(10)-10-----12-12------|
|----------------------|---------------------12-|
|--(8)--8------------8-|--(8)--8-----10-10---10-|
|---------0-0-0-0-0----|---------0-0-------0-10-|


                                              N.C.
   +E   E  E  E  E  E  E  E   E E E E  E  E E  E
|---------------------------|--------------------|
|---------------------------|--------------------|
|---------------------------|-----------------10-|
|-(12)-12-12-12-12-12-12-12-|-x-x-x-x-12-12-x----|
|-(10)-10-10-10-10-10-10-10-|-x-x-x-x-10-10-x--8-|
|-(10)-10-10-10-10-10-10-10-|-x-x-x-x-10-10-x----|


                                             Csus2
   +E   E E E E E E  E    +E   E E E  E  E E  E
|----------------------|------------------------|
|----------------------|------------------------|
|-(10)-10-----------10-|-(10)-10-----12-12------|
|----------------------|---------------------12-|
|--(8)--8------------8-|--(8)--8-----10-10---10-|
|---------0-0-0-0-0----|---------0-0-------0-10-|
|
| Gtr III
|   W                      W
|----------------------|------------------------|
|----------------------|------------------------|
|----------------------|------------------------|
|----------------------|------------------------|
|----------------------|------------------------|
|----------------------|------------------------|


                                               Bbsus2
   +E   E  E  E  E  E  E  E   E  E E E  E  E E  E
|---------------------------|---------------------|
|---------------------------|---------------------|
|---------------------------|---------------------|
|-(12)-12-12-12-12-12-12-12-|-x--x-x-x-12-12-x-10-|
|-(10)-10-10-10-10-10-10-10-|-x--x-x-x-10-10-x--8-|
|-(10)-10-10-10-10-10-10-10-|-x--x-x-x-10-10-x--8-|
|
|   W                         H.             E  E
|---------------------------|---------------------|
|---------------------------|---------------------|
|---------------------------|------------------10-|
|---------------------------|---------------------|
|---------------------------|---------------------|
|---------------------------|---------------------|


 Chorus
  Bbsus2                                         C5
   +Q    Q   E  E  E  E    +E   E  Q     E  E  E  E
|-----------------------|---------------------------|
|-----------------------|---------------------------|
|-----------------------|---------------------------|
|-(10)--10--10-10-10-10-|-(10)-10-10----10-10-10-10-|
|--(8)---8---8--8--8--8-|--(8)--8--8-----8--8--8-10-|
|--(8)---8---8--8--8--8-|--(8)--8--8-----8--8--8-10-|
|
|  +Q    Q   Q     E  E    +E   E  E  E  E  E  E  E
|-----------------------|---------------------------|
|-----------------------|---------------------------|
|-(10)---9-----------10-|-(10)--9--------9h10-12-10-|
|-----------10----10----|---------12p10-------------|
|-----------------------|---------------------------|
|-----------------------|---------------------------|


                                                   Bbsus2
   +Q    Q   E  E  E    E    +E   E  Q     E  E  E  E
|-------------------------|---------------------------|
|-------------------------|---------------------------|
|-------------------------|---------------------------|
|-(10)--10--10-10-10---10-|-(10)-10-10----10-10-10-10-|
|-(10)--10--10-10-10---10-|-(10)-10-10----10-10-10--8-|
|-(10)--10--10-10-10---10-|-(10)-10-10----10-10-10--8-|
|
|  +Q    Q   Q     E a  E    +E   E  E  E  E  E  E  E
|-------------------------|---------------------------|
|-------------------------|---------------------------|
|-(10)---9-----------9h10-|-(10)--9--------9h10-12-10-|
|-----------10----10------|---------12p10-------------|
|-------------------------|---------------------------|
|-------------------------|---------------------------|


                                                 C5
   +Q    Q   E  E  E  E    +E   E  Q     E  E  E  E
|-----------------------|---------------------------|
|-----------------------|---------------------------|
|-----------------------|---------------------------|
|-(10)--10--10-10-10-10-|-(10)-10-10----10-10-10-10-|
|--(8)---8---8--8--8--8-|--(8)--8--8-----8--8--8-10-|
|--(8)---8---8--8--8--8-|--(8)--8--8-----8--8--8-10-|
|
|  +Q    Q   Q     E  E    +E   E  E  E  E  E  E  E
|-----------------------|---------------------------|
|-----------------------|---------------------------|
|-(10)---9-----------10-|-(10)--9--------9h10-12-10-|
|-----------10----10----|---------12p10-------------|
|-----------------------|---------------------------|
|-----------------------|---------------------------|


          D5       C5         D5
   +E   E H    +E   E    E  E H.
|---------------------|-----------------|
|---------------------|-----------------|
|---------------------|-----------------|
|-(10)-10-0----(0)-10-|-10-10-0---------|
|-(10)-10-0----(0)-10-|-10-10-0---------|
|-(10)-10-0----(0)-10-|-10-10-0---------|
|
|   W                    H        H
|---------------------|-----------------|
|---------------------|-----------------|
|---------------------|-----------------|
|---------------------|-----------------|
|---------------------|-----------------|
|---------------------|-----------x\----|


  Bbsus2                                       C5
   Q   Q   E  E  E  E    +E   E  Q     E  E  E  E
|---------------------|---------------------------|
|---------------------|---------------------------|
|---------------------|---------------------------|
|-10--10--10-10-10-10-|-(10)-10-10----10-10-10-10-|
|--8---8---8--8--8--8-|--(8)--8--8-----8--8--8-10-|
|--8---8---8--8--8--8-|--(8)--8--8-----8--8--8-10-|
|
|  Q   Q   Q     E  E    +E   E  E  E  E  E  E  E
|---------------------|---------------------------|
|---------------------|---------------------------|
|-10---9-----------10-|-(10)--9--------9h10-12-10-|
|---------10----10----|---------12p10-------------|
|---------------------|---------------------------|
|---------------------|---------------------------|


                                                   Bbsus2
   +Q    Q   E  E  E    E    +E   E  Q     E  E  E  E
|-------------------------|---------------------------|
|-------------------------|---------------------------|
|-------------------------|---------------------------|
|-(10)--10--10-10-10---10-|-(10)-10-10----10-10-10-10-|
|-(10)--10--10-10-10---10-|-(10)-10-10----10-10-10--8-|
|-(10)--10--10-10-10---10-|-(10)-10-10----10-10-10--8-|
|
|  +Q    Q   Q     E a  E    +E   E  E  E  E  E  E  E
|-------------------------|---------------------------|
|-------------------------|---------------------------|
|-(10)---9-----------9h10-|-(10)--9--------9h10-12-10-|
|-----------10----10------|---------12p10-------------|
|-------------------------|---------------------------|
|-------------------------|---------------------------|


                                                 C5
   +Q    Q   E  E  E  E    +E   E  Q     E  E  E  E
|-----------------------|---------------------------|
|-----------------------|---------------------------|
|-----------------------|---------------------------|
|-(10)--10--10-10-10-10-|-(10)-10-10----10-10-10-10-|
|--(8)---8---8--8--8--8-|--(8)--8--8-----8--8--8-10-|
|--(8)---8---8--8--8--8-|--(8)--8--8-----8--8--8-10-|
|
|  +Q    Q   Q     E  E    +E   E  E  E  E  E  E  E
|-----------------------|---------------------------|
|-----------------------|---------------------------|
|-(10)---9-----------10-|-(10)--9--------9h10-12-10-|
|-----------10----10----|---------12p10-------------|
|-----------------------|---------------------------|
|-----------------------|---------------------------|


          D5       C5         D5
   +E   E H    +E   E    E  E H.
|---------------------|-------------|
|---------------------|-------------|
|---------------------|-------------|
|-(10)-10-0----(0)-10-|-10-10-0-----|
|-(10)-10-0----(0)-10-|-10-10-0-----|
|-(10)-10-0----(0)-10-|-10-10-0-----|
|
|   W                    W
|---------------------|-------------|
|---------------------|-------------|
|---------------------|-------------|
|---------------------|-------------|
|---------------------|-------------|
|---------------------|-------------|


 Outro
  N.C.
  Gtr I
  PM------------------------------------------------------------------|
  E E E E E E E E   E E E E E E E E   E E E E E E E E   E E E E E E E E
|-----------------|-----------------|-----------------|-----------------|
|-----------------|-----------------|-----------------|-----------------|
|-----------------|-----------------|-----------------|-----------------|
|-----------------|-----------------|-----------------|-----------------|
|---5-5---5---3h5-|---5-5---5---3h5-|---5-5---5---3h5-|---5-5---5---3h5-|
|-0-----0---0-----|-0-----0---0-----|-0-----0---0-----|-0-----0---0-----|


    D5
    Gtr II
    E E E E E E E E   E E E E E E E E
||------------------|-----------------|
||o-----------------|-----------------|
||------------------|-----------------|
||------------------|-------------5h7-|
||o---5-5---5---3h5-|---5-5---5-------|
||--0-----0---0-----|-0-----0---0-----|
|
|   Gtr III
|   Q   Q   E E E E   Q   Q   E E E E
||------------------|-----------------|
||o-----------------|-----------------|
||------------------|-----------------|
||--0---0---0-0-0-0-|-0---0---0-0-0-0-|
||o-0---0---0-0-0-0-|-0---0---0-0-0-0-|
||--0---0---0-0-0-0-|-0---0---0-0-0-0-|


  Bbsus2                  C5
   E E  E E  E  E  E  E    E E  E E  E  E  E  E   3x
|-----------------------|-------------------------||
|-----------------------|------------------------o||
|-----------------------|-------------------------||
|----7--7----7-----5h=7-|----7--7----7-----5h=7---||
|-----------------------|------------------------o||
|--0------0-----0-------|--0------0-----0---------||
|
|  Q    Q    E  E  E  E    Q    Q    E  E  E  E   3x
|-----------------------|-------------------------||
|-----------------------|------------------------o||
|-----------------------|-------------------------||
|-10---10---10-10-10-10-|-10---10---10-10-10-10---||
|--8----8----8--8--8--8-|-10---10---10-10-10-10--o||
|--8----8----8--8--8--8-|-10---10---10-10-10-10---||


  D5
  E E E E E E E E   E E E E E E E E
|-----------------|-----------------|
|-----------------|-----------------|
|-----------------|-----------------|
|-----------------|-------------5h7-|
|---5-5---5---3h5-|---5-5---5-------|
|-0-----0---0-----|-0-----0---0-----|
|
| Q   Q   E E E E   Q   Q   E E E E
|-----------------|-----------------|
|-----------------|-----------------|
|-----------------|-----------------|
|-0---0---0-0-0-0-|-0---0---0-0-0-0-|
|-0---0---0-0-0-0-|-0---0---0-0-0-0-|
|-0---0---0-0-0-0-|-0---0---0-0-0-0-|


  Bbsus2                  C5          Bb5  D5
   E E  E E  E  E  E  E    Q.    Q.   Q    W
|-----------------------|----------------|------*|
|-----------------------|----------------|------*|
|-----------------------|----------------|------*|
|----7--7----7-----5h=7-|-10----10----8--|-0----*|
|-----------------------|-10----10----8--|-0----*|
|--0------0-----0-------|-10----10----8--|-0----*|
|
|  Q    Q    E  E  E  E    Q.    Q.   Q    W
|-----------------------|----------------|------*|
|-----------------------|----------------|------*|
|-----------------------|----------------|------*|
|-10---10---10-10-10-10-|-10----10----8--|-0----*|
|--8----8----8--8--8--8-|-10----10----8--|-0----*|
|--8----8----8--8--8--8-|-10----10----8--|-0----*|




--------------------------------------------------------------------------------


Duration Legend
---------------
W - whole; H - half; Q - quarter; E - 8th; S - 16th; T - 32nd; X - 64th; a - acciaccatura
+ - note tied to previous; . - note dotted; .. - note double dotted
Uncapitalized letters represent notes that are staccato (1/2 duration)
Irregular groupings are notated above the duration line
Duration letters will always appear directly above the note/fret number it represents the
duration for.  Duration letters with no fret number below them represent rests.  Multi-
bar rests are notated in the form Wxn, where n is the number of bars to rest for.  Low
melody durations appear below the staff

Tablature Legend
----------------
 h   - hammer-on
 p   - pull-off
 b   - bend
 pb  - pre-bend
 r   - bend release (if no number after the r, then release immediately)
 /\  - slide into or out of (from/to "nowhere")
 s   - legato slide
 S   - shift slide
 - natural harmonic
[n]  - artificial harmonic
n(n) - tapped harmonic
 ~   - vibrato
 tr  - trill
 T   - tap
 TP  - trem. picking
 PM  - palm muting
\n/  - tremolo bar dip; n = amount to dip
 \n  - tremolo bar down
 n/  - tremolo bar up
/n\  - tremolo bar inverted dip
 =   - hold bend; also acts as connecting device for hammers/pulls
 <> - volume swell (louder/softer)
 x   - on rhythm slash represents muted slash
 o   - on rhythm slash represents single note slash

Misc Legend
-----------
 |  - bar
||  - double bar
||o - repeat start
o|| - repeat end
*|  - double bar (ending)
 :  - bar (freetime)
 $  - Segno
 &  - Coda
Tempo markers -  = BPM(8/16=s8/s16), where s8 = swing 8ths, s16 = swing 16ths


Tap to rate this tab
 
# A B C D E F G H I J K L M N O P Q R S T U V W X Y Z