Guitaretab - guitar tabs
Song name
# A B C D E F G H I J K L M N O P Q R S T U V W X Y Z

Anberlin - Paperthin Hymn Acoustic tab

Anberlin
Paperthin Hymn
Tabbed by U B the band
Tuning D A D G B E

Legend:
(x#)-How many times to play....example chords
/-Slide up
\-Slide down
x-sratch note

This is an acoustic version I saw and I decided to tab it out.

Intro: 00:00
E|--------------------------|
B|--6(x32)--6(x16)--6(x16)--|
G|--5-------5-------5-------|
D|--0-------3-------5-------|
A|--------------------------|
D|--------------------------|

Continued: 00:11
E|-------------------------|
B|-------------------------|
G|-------------------------|
D|--000-777----000-777-----|
A|--000-777-88-000-777-88--|
D|--000-777-77-000-777-77--|

E|-------------------------|
B|-------------------------|
G|-------------------------|
D|--333-555-333-555-33-55--|
A|--333-333-333-333-33-33--|
D|--333-333-333-333-33-33--|x2

Verse 1: 00:22
E|--------------------------|
B|--6(x32)--6(x16)--6(x16)--|
G|--5-------5-------5-------|
D|--0-------3-------5-------|
A|--------------------------|
D|--------------------------|x2

Pre-Chorus: 00:45
E|---------------------------------------|
B|--10-----------------------------------|
G|--10------9------5------10-----12------|
D|--8-------7------3------8------10------|
A|--8-------0------3------8------10------|
D|--8-------0------3------8------10------|

Chorus: 00:56
E|-----------------------------------------|
B|--3--------------------------------------|
G|--2--------5--------10------7--5------5--|
D|--0------2/3------7/8-------7--5------3--|
A|--0------2/3------7/8-------5--3------3--|
D|--0------2/3------7/8-----------------3--|x2

Link to verse: 01:19
E|------------|
B|--3~~~~x-x--|
G|--2~~~~x-x--|
D|--0~~~~x-x--|
A|--0~~~~x-x--|
D|--0~~~~x-x--|

Verse 2: 01:23
E|--------------------------|
B|--6(x32)--6(x16)--6(x16)--|
G|--5-------5-------5-------|
D|--0-------3-------5-------|
A|--------------------------|
D|--------------------------|x2

continued: 01:45
E|------------------|
B|--3---------------|
G|--2----9/10----5--|
D|--0----7/8-----5--|
A|--0----7/8-----3--|
D|--0----7/8--------|
[ Tab from: http://www.guitaretab.com/a/anberlin/80244.html ]
Pre-Chorus: 01:51
E|---------------------------------------|
B|--10-----------------------------------|
G|--10------9------5------9-99-10-10-10--|
D|--8-------7------3------7-77-7--7--7---|
A|--8-------0------3------7-77-7--7--7---|
D|--8-------0------3------7--------------|

Chorus: 02:02
E|-----------------------------------------|
B|--3--------------------------------------|
G|--2--------5--------10------7--5------5--|
D|--0------2/3------7/8-------7--5------3--|
A|--0------2/3------7/8-------5--3------3--|
D|--0------2/3------7/8-----------------3--|

E|-------------------------------------------------------|
B|--3----------------------------------------------------|
G|--2--------5--------10------7--5--------10----9--------|
D|--0------2/3------7/8-------7--5------7/8-----8----10--|
A|--0------2/3------7/8-------5--3------7/8-----8----8---|
D|--0------2/3------7/8-----------------7/8-----8----8---|

E|------------------------|
B|------------------------|
G|--999-----999-----9-----|
D|--000-888-000-888-0-8\--|
A|--000-888-000-888-0-8\--|
D|--000-888-000-888-0-8\--|

Bridge: 02:30
E|-------------------------|
B|-------------------------|
G|-------------------------|
D|--000-777----000-777-----|
A|--000-777-88-000-777-88--|
D|--000-777-77-000-777-77--|

E|-------------------------|
B|-------------------------|
G|-------------------------|
D|--333-555-333-555-33-55--|
A|--333-333-333-333-33-33--|
D|--333-333-333-333-33-33--|x3

E|----------------------------|
B|----------------------------|
G|--10----9----------12----5--|
D|--8-----8----10----10----3--|
A|--8-----8----8-----10----3--|
D|--8-----8----8-----10----3--|

Chorus: 02:53
E|-----------------------------------------|
B|--3--------------------------------------|
G|--2--------5--------10------7--5------5--|
D|--0------2/3------7/8-------7--5------3--|
A|--0------2/3------7/8-------5--3------3--|
D|--0------2/3------7/8-----------------3--|

E|-----------------------------------------|
B|--3--------------------------------------|
G|--2--------5--------10------7--5---------|
D|--0------2/3------7/8-------7--5----xxxx-|
A|--0------2/3------7/8-------5--3----xxxx-|
D|--0------2/3------7/8---------------xxxx-|

Chorus continued: 03:27
E|--------------------------------------------------|
B|--------------------------------------------------|
G|--10----9----------12------10----9----------12----|
D|--8-----8----10----10----7/8-----8----10----10----|
A|--8-----8----8-----10----7/8-----8----8-----10----|
D|--8-----8----8-----10----7/8-----8----8-----10----|

Finished!
Related for Paperthin Hymn Acoustic tab
×
Best way to learn
"Paperthin Hymn Acoustic"