Song name
# A B C D E F G H I J K L M N O P Q R S T U V W X Y Z

Anberlin - Unwinding Cable Car tab

Help us improve GuitareTab! Take a short survey!
This song is played with two guitars but I love this song and I obviously can't play two 
at once, so here is my one-guitar version:

D=down strum
U=up strum

Intro:

e|--0-------0-------0-------0-------0-------0-------0-------0------|
B|----4---4---4---4---4---4---4---4---4---4---4---4---4---4---4----|
G|------6-------6-------6-------6-------6-------6-------6-------6--|
D|-----------------------------------------------------------------|
A|-----------------------------------------------------------------|
E|-----------------------------------------------------------------| x2

    D D U D U D U D U D U U U D D U D U U U D D U D U
e|--0-0-0-0-0-0-0-0-0-0-0-0-0-0-0-0-0-0-0-0-0-0-0-0-0--|
B|--5-5-5-4-2-0-0-0-0-0-0-0-0-0-0-0-0-0-0-0-0-0-0-0-0--|
G|--6-6-6-6-4-4-4-4-4-4-4-6-6-4-4-4-4-6-6-6-6-6-6-6-6--|
D|--6-6-6-6-4-4-4-2-2-2-4-6-6-4-2-2-4-6-7-7-7-7-7-7-7--|
A|--4-4-4-----2-2-------------2---------7-7-7-7-7-7-7--|
E|--------------------------------------5-5-5-5-5-5-5--| x2


Verse:

    D D D U D U U D U D U U U D D U D U U U D D U D U
e|--0-0-0-0-0-0-0-0-0-0-0-0-0-0-0-0-0-0-0-0-0-0-0-0-0--|
B|--5-5-5-5-5-0-0-0-0-0-0-0-0-0-0-0-0-0-0-0-0-0-0-0-0--|
G|--6-6-6-6-6-4-4-4-4-4-4-6-6-4-4-4-4-6-6-6-6-6-6-6-6--|
D|--6-6-6-6-6-4-4-2-2-2-4-6-6-4-2-2-4-6-7-7-7-7-7-7-7--|
A|--4-4-4-4-4-2-2-------------2---------7-7-7-7-7-7-7--|
E|--------------------------------------5-5-5-5-5-5-5--| x4

Chorus:

    D D U D U D U D U D U U U D D U D U U U D D U D U
e|--0-0-0-0-0-0-0-0-0-0-0-0-0-0-0-0-0-0-0-0-0-0-0-0-0--|
B|--5-5-5-4-2-0-0-0-0-0-0-0-0-0-0-0-0-0-0-0-0-0-0-0-0--|
G|--6-6-6-6-4-4-4-4-4-4-4-6-6-4-4-4-4-6-6-6-6-6-6-6-6--|
D|--6-6-6-6-4-4-4-2-2-2-4-6-6-4-2-2-4-6-7-7-7-7-7-7-7--|
A|--4-4-4-----2-2-------------2---------7-7-7-7-7-7-7--|
E|--------------------------------------5-5-5-5-5-5-5--| x4

(Repeat Verse)

(Repeat Chorus)

Bridge: Pay careful attention to the strumming pattern as I varied it a little bit for a 
transition between chords.

    U D U U D U U D U U D U U D U U D U U D U U D U U
e|--0-0-0-0-0-0-0-0-0-0-0-0-0-0-0-0-0-0-0-0-0-0-0-0-0-|
B|--0-0-0-0-0-0-0-0-0-0-0-0-0-0-0-0-0-0-0-0-0-0-0-0-0-|
G|--6-6-6-6-6-6-6-6-6-6-6-6-6-8-8-8-8-8-8-8-8-8-8-8-8-|
D|--7-7-7-7-7-7-7-7-7-7-7-7-7-9-9-9-9-9-9-9-9-9-9-9-9-| -
A|--7-7-7-7-7-7-7-7-7-7-7-7-7-9-9-9-9-9-9-9-9-9-9-9-9-|  -
E|--5-5-5-5-5-5-5-5-5-5-5-5-5-7-7-7-7-7-7-7-7-7-7-7-7-|   -  Play both of
                                                           - these first and
    D U U D U U D U U D U U D U U D U U D U U D U U       -  then repeat
e|--0-0-0-0-0-0-0-0-0-0-0-0-7-7-7-7-7-7-7-7-7-7-7-7--|   -     twice.
B|--0-0-0-0-0-0-0-0-0-0-0-0-7-7-7-7-7-7-7-7-7-7-7-7--|  -
G|--6-6-6-6-6-6-6-6-6-6-6-6-8-8-8-8-8-8-8-8-8-8-8-8--|
D|--7-7-7-7-7-7-7-7-7-7-7-7-9-9-9-9-9-9-9-9-9-9-9-9--|
A|--7-7-7-7-7-7-7-7-7-7-7-7-9-9-9-9-9-9-9-9-9-9-9-9--|
E|--5-5-5-5-5-5-5-5-5-5-5-5-7-7-7-7-7-7-7-7-7-7-7-7--| x2

    D U U D U U D U U D U U D U U D U U D U U D U U
e|--0-0-0-0-0-0-0-0-0-0-0-0-0-0-0-0-0-0-0-0-0-0-0-0-|
B|--0-0-0-0-0-0-0-0-0-0-0-0-0-0-0-0-0-0-0-0-0-0-0-0-|
G|--6-6-6-6-6-6-6-6-6-6-6-6-8-8-8-8-8-8-8-8-8-8-8-8-|
D|--7-7-7-7-7-7-7-7-7-7-7-7-9-9-9-9-9-9-9-9-9-9-9-9-| -
A|--7-7-7-7-7-7-7-7-7-7-7-7-9-9-9-9-9-9-9-9-9-9-9-9-|  -  Then play these:
E|--5-5-5-5-5-5-5-5-5-5-5-5-7-7-7-7-7-7-7-7-7-7-7-7-|   - note the
                                                         - slightest change
    D U U D U U D U U D U U D U U D U U D U U D U       -  in the strumming
e|--0-0-0-0-0-0-0-0-0-0-0-0-7-7-7-7-7-7-7-7-7-7-7--|   -    pattern..there is
B|--0-0-0-0-0-0-0-0-0-0-0-0-7-7-7-7-7-7-7-7-7-7-7--|  -    not a second up
G|--6-6-6-6-6-6-6-6-6-6-6-6-8-8-8-8-8-8-8-8-8-8-8--|       strum to end it.
D|--7-7-7-7-7-7-7-7-7-7-7-7-9-9-9-9-9-9-9-9-9-9-9--|
A|--7-7-7-7-7-7-7-7-7-7-7-7-9-9-9-9-9-9-9-9-9-9-9--|
E|--5-5-5-5-5-5-5-5-5-5-5-5-7-7-7-7-7-7-7-7-7-7-7--|

--------------------------------------------------------
     D D D U D U U D D U D U U D D U D U U D U D U
e|--------------------------------------------------|
B|--------------------------------------------------|          This is the
G|---6-6-6-6-6-4-4-4-4-4-4-4-4-4-4-4-4-6-6-6-6-6-6--|  <----   last part of
D|---6-6-6-6-6-4-4-4-4-4-4-4-4-4-4-4-4-7-7-7-7-7-7--|          bridge.
A|---4-4-4-4-4-2-2-2-2-2-2-2-2-2-2-2-2-7-7-7-7-7-7--|
E|-------------------------------------5-5-5-5-5-5--| x2

Chorus:

    D D U D U D U D U D U U U D D U D U U U D D U D U
e|--0-0-0-0-0-0-0-0-0-0-0-0-0-0-0-0-0-0-0-0-0-0-0-0-0--|
B|--5-5-5-4-2-0-0-0-0-0-0-0-0-0-0-0-0-0-0-0-0-0-0-0-0--|
G|--6-6-6-6-4-4-4-4-4-4-4-6-6-4-4-4-4-6-6-6-6-6-6-6-6--|
D|--6-6-6-6-4-4-4-2-2-2-4-6-6-4-2-2-4-6-7-7-7-7-7-7-7--|
A|--4-4-4-----2-2-------------2---------7-7-7-7-7-7-7--|
E|--------------------------------------5-5-5-5-5-5-5--| x4

Outro:

e|------0-----0-----0-----0-----2-----2-----2-----2----|
B|----0-----0-----0-----0-----0-----0-----0-----0------|
G|--2-----2-----2-----2-----2-----2-----2-----2--------|
D|-----------------------------------------------------|
A|-----------------------------------------------------|
E|-----------------------------------------------------|

e|------0-----0-----0-----0-----7-----7-----7-----7----|
B|----0-----0-----0-----0---4-5---4-5---4-5---4-5------|
G|--2-----2-----2-----2--------------------------------|
D|-----------------------------------------------------|
A|-----------------------------------------------------|
E|-----------------------------------------------------|
Related for Unwinding Cable Car tab