Song name
# A B C D E F G H I J K L M N O P Q R S T U V W X Y Z

Anberlin - A Whisper A Clamor tab

      h - hammer on 
      p - pull off 
      b - bend string up
      r - release bend
      / - slide up
      \ - slide down
      v - vibrato (sometimes written as ~)
      t - right hand tap
      x - play 'note' with heavy damping

Song: A Whisper And A Clamor
Band: Anberlin

Intro:
|----------------------------------------------------------------|x2
|----------------------------------------------------------------|
|-------------------10--10--10--10--10--10-10b--10--10---------|
|----------------------------------------------------------------|
|----------------------------------------------------------------|
|--0--0--0--0--0-0----------------------------------------------|

Chorus:
|--5-5-5--5--5-5-------------------------------|--------------|
|--6-6-6--6--6-6---10-10--10--10-10------------|--5--6--5--3--|
|--7-7-7--7--7-7--10-10--10--10-10---555555---|--------------|
|--7-7-7--7--7-7---10-10--10--10-10---555555---|--------------|
|--5-5-5--5--5-5---8--8---8---8--8----333333---|--------------|
|----------------------------------------------|--------------|
      |--------------    2x    ---------------|

Verse:
|--------------------------------------------------------|x2
|--------------------------------------------------------|
|-----------10--10-10--9--9--9--------------0--0--------|
|--------------------------------10--10--10--------------|
|--------------------------------------------------8--8--|
|--0--0--0-----------------------------------------------|

|--------------------------------------------------------|x2
|--------------------------------------------------------|
|-----------10--10-10--9--9--9--------------0--0--------|
|--------------------------------10--10--10--------------|
|--------------------------------------------------8--8--|
|--8--8--8-----------------------------------------------|

Bridge 1 (Acoustic):

|-----------------------------------------------------|
|--------/6--5----------------------------------------|
|--------------------/7--5--------/7--5--------0--2--|
|-----7-------------------------7---------------------|
|--5---------------0---------5---------------3--------|
|---------------0-------------------------5-----------|

|-----------------------------------------------------|
|--------/6--5----------------------------------------|
|--------------------/7--5--------/7--5--------3--2--|
|-----7-------------------------7---------------------|
|--5---------------0---------5---------------3--------|
|---------------0-------------------------5-----------|

Bridge 2 (Distortion):

Gtr. 1
|-----------------------------------|
|-----------------------------------|
|--7-7-7-7-3-3-3-3-5-5-5-55-5-5-5--|
|--7-7-7-7-3-3-3-3-5-5-5-5-5-5-5-5--|
|--5-5-5-5-1-1-1-1-3-3-3-3-3-3-3-3--|
|-----------------------------------|
    |------------- x2 -------------|
(Immediately deaden each chord after strumming)

|-----------------------------------|
|-----------------------------------|
|--7-7-7-7-3-3-3-3-5-5-5-55-5-5-5--|
|--7-7-7-7-3-3-3-3-5-5-5-5-5-5-5-5--|
|--5-5-5-5-1-1-1-1-3-3-3-3-3-3-3-3--|
|-----------------------------------|
    |------------- x2 -------------|
(Continuously strum each chord)

Gtr. 2
|-------------------------------|--------------------------------|
|-------------------------------|--------------------------------|
|---10------------10b10b-------|---10--------/--12--------------|
|---x---(x28)-------------------|---x---(x24)----x---(x8)--------|
|---8---------------------------|---8---------/--10--------------|
|-------------------------------|--------------------------------|

|--5-5-5--5--5-5-------------------------------|--------------|
|--6-6-6--6--6-6---10-10--10--10-10------------|--5--6--5--3--|
|--7-7-7--7--7-7--10-10--10--10-10---555555---|--------------|
|--7-7-7--7--7-7---10-10--10--10-10---555555---|--------------|
|--5-5-5--5--5-5---8--8---8---8--8----333333---|--------------|
|----------------------------------------------|--------------|
      |--------------    2x    ---------------|


Intro   x1
Chorus  x1
Verse   x2
Intro   x1
Chorus  x2
Verse   x2
Chorus  x3
Bridge1 x2
Bridge2 x1
Chorus  x1  (different strum pattern)
Chorus  x1
Bridge1 x2
Tap to rate this tab
# A B C D E F G H I J K L M N O P Q R S T U V W X Y Z