Song name
# A B C D E F G H I J K L M N O P Q R S T U V W X Y Z

Anberlin - We Dreamt In Heist tab

-------------------------------------------------------------------------------
			     WE DREAMT IN HEIST - Anberlin
-------------------------------------------------------------------------------
Tabbed by: RLaunch
Email: launch_rocket@yahoo.com
Tuning: Drop D (D A D G B e)

r = 10
c = 12
 Verse 1


e|---------------------------------------------------------------------------|
B|---------------------------------------------------------------------------|
G|----22222222-55555555------------------22222222-55555555-rrrrrrrrrrccrr----|
D|-xx-22222222-55555555-3333333333333333-22222222-55555555-rrrrrrrrrrccrr----|
A|-xx-00000000-33333333-3333333333333333-00000000-33333333-8888888888rr88----|
D|-xx-------------------3333333333333333-------------------------------------|

This is a black market reformation. Keep your lips closed. And don't you ever give away 
underground location.

e|---------------------------------------------------------------------------|
B|---------------------------------------------------------------------------|
G|----22222222-55555555------------------22222222-55555555-rrrrrrrrrrccrr----|
D|----22222222-55555555-3333333333333333-22222222-55555555-rrrrrrrrrrccrr----|
A|----00000000-33333333-3333333333333333-00000000-33333333-8888888888rr88----|
D|----------------------3333333333333333-------------------------------------|

This is a black tie affair. Don't ever close your mouth, and we'll stay here until 
falls in their own snare.

e|---------------------------------------------------------------------------|
B|---------------------------------------------------------------------------|
G|----22222222-55555555------------------22222222-55555555-rrrrrrrrrrccrr----|
D|----22222222-55555555-3333333333333333-22222222-55555555-rrrrrrrrrrccrr----|
A|----00000000-33333333-3333333333333333-00000000-33333333-8888888888rr88----|
D|----------------------3333333333333333-------------------------------------|

I had this planned all along, and I brought you here for this. So tie your      mask on 
pretend that nothing's wrong.

===============

Chorus

e|---------------------------------------------------------------------------|
B|---------------------------------------------------------------------------|
G|---------------------------------------------------------------------------|
D|-5-5-55-5-5-5-55-3333333333333333-77777777-88888888-rrrrrrrrrrrrrrrr-------|
A|-5-5-55-5-5-5-55-3333333333333333-77777777-88888888-rrrrrrrrrrrrrrrr-------|
D|-5-5-55-5-5-5-55-3333333333333333-77777777-88888888-rrrrrrrrrrrrrrrr-------|

And I'll try to stay awake as long as I can.

e|---------------------------------------------------------------------------|
B|---------------------------------------------------------------------------|
G|---------------------------------------------------------------------------|
D|-5-5-55-5-5-5-55-3333333333333333-77777777-88888888-rrrrrrrrrrrrrrrr-------|
A|-5-5-55-5-5-5-55-3333333333333333-77777777-88888888-rrrrrrrrrrrrrrrr-------|
D|-5-5-55-5-5-5-55-3333333333333333-77777777-88888888-rrrrrrrrrrrrrrrr-------|

 And I'll try to stay here, here with you.

===============

Verse 2

  Guitar 1
e|---------------------------------------------------------------------------|
B|---------------------------------------------------------------------------|
G|-22222222-55555555------------------22222222-55555555-rrrrrrrrrrrrrr-------|
D|-22222222-55555555-3333333333333333-22222222-55555555-rrrrrrrrrrrrrr-------|
A|-00000000-33333333-3333333333333333-00000000-33333333-88888888888888-------|
D|-------------------3333333333333333----------------------------------------|

  Guitar 2
e|---------------------------------------------------------------------------|
B|---------------------------------------------------------------------------|
G|------------------------9~---------------9~----------------9~5~------------|
D|-------------------5h7h9------------5h7h9-------------5h7h9----------------|
A|---------------------------------------------------------------------------|
D|---------------------------------------------------------------------------|

This is a black market reformation, how does it feel to be under the gun?
Last ones to laugh pull the trigger here on the run.

  Guitar 1
e|---------------------------------------------------------------------------|
B|---------------------------------------------------------------------------|
G|-22222222-55555555------------------22222222-55555555-rrrrrrrrrrrrrr-------|
D|-22222222-55555555-3333333333333333-22222222-55555555-rrrrrrrrrrrrrr-------|
A|-00000000-33333333-3333333333333333-00000000-33333333-88888888888888-------|
D|-------------------3333333333333333----------------------------------------|

  Guitar 2
e|---------------------------------------------------------------------------|
B|---------------------------------------------------------------------------|
G|------9~----------------9~---------------9~------------------9~5~----------|
D|-5h7h9-------------5h7h9------------5h7h9---------------5h7h9--------------|
A|---------------------------------------------------------------------------|
D|---------------------------------------------------------------------------|

You can hide the money, I'll mark an X. I am above the law and you're the order. You 
everything make sense.

===============

Repeat Chorus

===============

Bridge Part 1

Guitar 1
e|---------------------------------------------------------------------------|
B|---------------------------------------------------------------------------|
G|----------------------------------------------------rr-rr-rr-rr-rrrr-------|
D|-77-77-rr-rr-rrrr-33-33-33-33-3333-77-77-rr-rr-rrrr-rr-rr-rr-rr-rrrr-------|
A|-77-77-rr-rr-rrrr-33-33-33-33-3333-77-77-rr-rr-rrrr-88-88-88-88-8888-------|
D|-77-77-rr-rr-rrrr-33-33-33-33-3333-77-77-rr-rr-rrrr------------------------|

Guitar 2
e|---------------------------------------------------------------------------|
B|---------------------------------------------------------------------------|
G|------9~---------------9~---------------9~5~-------------9~----------------|
D|-5h7h9------------5h7h9------------5h7h9------------5h7h9------------------|
A|---------------------------------------------------------------------------|
D|---------------------------------------------------------------------------|


Guitar 1
e|---------------------------------------------------------------------------|
B|---------------------------------------------------------------------------|
G|----------------------------------------------------rr-rr-rr-rrrrrrrr------|
D|-77-77-rr-rr-rrrr-33-33-33-33-3333-77-77-rr-rr-rrrr-rr-rr-rr-rrrrrrrr------|
A|-77-77-rr-rr-rrrr-33-33-33-33-3333-77-77-rr-rr-rrrr-88-88-88-88888888------|
D|-77-77-rr-rr-rrrr-33-33-33-33-3333-77-77-rr-rr-rrrr------------------------|

Guitar 2
e|---------------------------------------------------------------------------|
B|---------------------------------------------------------------------------|
G|------9~---------------9~---------------9~5~-------------9~----------------|
D|-5h7h9------------5h7h9------------5h7h9------------5h7h9------------------|
A|---------------------------------------------------------------------------|
D|---------------------------------------------------------------------------|

Guitar 3
e|---------------------------------------------------------------------------|
B|---------------------------------------------------------------------------|
G|---------------------------------------------------------------------------|
D|-10~/14~-12-13b(15)-10~--------10~/14~-12-13b(15)-10~----------------------|
A|---------------------------------------------------------------------------|
D|---------------------------------------------------------------------------|

===============

Bridge Part 2

e|---------------------------------------------------------------------------|
B|---------------------------------------------------------------------------|
G|---------------------------------------------------------------------------|
D|-3333333333333333-5555555555555555-77777777-88888888-rrrrrrrrrrrrrrrr------|
A|-3333333333333333-5555555555555555-77777777-88888888-rrrrrrrrrrrrrrrr------|
D|-3333333333333333-5555555555555555-77777777-88888888-rrrrrrrrrrrrrrrr------|

And I know Mexico is south of here, beautiful this time of year. So let's jump the 
when the coast is clear.

e|---------------------------------------------------------------------------|
B|---------------------------------------------------------------------------|
G|---------------------------------------------------------------------------|
D|-3333333333333333-5555555555555555-77777777-88888888-rrrrrrrrrrrrrrrr------|
A|-3333333333333333-5555555555555555-77777777-88888888-rrrrrrrrrrrrrrrr------|
D|-3333333333333333-5555555555555555-77777777-88888888-rrrrrrrrrrrrrrrr------|

Salvation waits at ocean shore, we won't have to lie no more. Don't you worry baby I'll 
right here.

===============

Repeat Chorus (x2)

Note: On the Chorus after the Bridge Part 2, rest on the final 2 G's. Also, there is a 
2 part on the final Chorus. Of this I'm at a loss (all I know it involves the notes 
2 plays in Verse 2 and Bridge Part 1). Any advice or suggestions are welcome!

===============

| /  slide up
| h  hammer-on
| ~  vibrato
| x  Mute note
===============================================================================
Tap to rate this tab
# A B C D E F G H I J K L M N O P Q R S T U V W X Y Z