Song name
# A B C D E F G H I J K L M N O P Q R S T U V W X Y Z

Anberlin - Debut tab

-------------------------------------------------------------------------------
			     (Début) - Anberlin
-------------------------------------------------------------------------------
Tabbed by: RLaunch
Email: launch_rocket@yahoo.com

Tuning: Drop C (C G C F A D)

Guitar lick:

Note: this is played fast with reverb, but I've put spaces in between then notes so you 
tell what they are.

D|-----------------------------------------------------------------------------------------------|
A|-----------------------------------------------------------------------------------------------|
F|-------------14-14-14-14-14-14-14-14-14-14-14-------------12-12-12-12-12-12-12-12-12-12-12-12--|
C|-12-12-12-12----------------------------------10-10-10-10--------------------------------------|
G|-----------------------------------------------------------------------------------------------|
C|-----------------------------------------------------------------------------------------------|

D|--------------------------------------------Only-do-the-hammer-on-and-bend-on-the-last-one.----|
A|-----------------------------------------------------------------------------------------------|
F|---------10-10-10-10-10-10-10-10-10-10-10-10h12-9-9-9-9-9-9-9-9-9-9-9-9-9-9b-------------------|
C|-8-8-8-8---------------------------------------------------------------------------------------|
G|-----------------------------------------------------------------------------------------------|
C|-----------------------------------------------------------------------------------------------|

Acoustic Thing:

D|-----------------------------------------------------------------------------------------------|
A|----11------------11---------------------------------------------------------------------------|
F|--11--11-11~----11--11-11----------------------------------------------------------------------|
C|-9------9------9------9--9~--------------------------------------------------------------------|
G|-----------------------------------------------------------------------------------------------|
C|-----------------------------------------------------------------------------------------------|

There's a few more parts in this song that use heavy effects, but I couldn't discern 
Hope this helps!
Tap to rate this tab
# A B C D E F G H I J K L M N O P Q R S T U V W X Y Z