Guitaretab - guitar tabs
Song name
# A B C D E F G H I J K L M N O P Q R S T U V W X Y Z

Anchor And Braille - Sheet Music tab

I watched the live version of the song and figured out the chords. Should be correct. 
is my first tab, so forgive me if I did it wrong. Thanks.

Capo on 2nd fret.


        Intro: 2x

e|-----------0---------------0--------------0------------0--------------------|
B|-----------0---------------0--------------0------------0--------------------|
G|-----------0---------------0--------------0------------0--------------------|
D|-----------0---------------0--------------0------------0--------------------|
A|-----------7---------------7--------------5------------3--------------------|
E|-----------5---------------4--------------3------------1--------------------|


        Verse 1: 4x

e|-----------0---------------0--------------0------------0--------------------|
B|-----------0---------------0--------------0------------0--------------------|
G|-----------0---------------0--------------0------------0--------------------|
D|-----------0---------------0--------------0------------0--------------------|
A|-----------7---------------7--------------5------------3--------------------|
E|-----------5---------------4--------------3------------1--------------------|


        Chorus: 2x

e|-----------0---------------0--------------0------------0--------------------|
B|-----------0---------------0--------------0------------0--------------------|
G|-----------0---------------0--------------0------------0--------------------|
D|-----------0---------------0--------------0------------0--------------------|
A|-----------10--------------7--------------9------------7--------------------|
E|-----------8---------------5--------------7------------7--------------------|

        Verse 2: 4x
[ Tab from: http://www.guitaretab.com/a/anchor-and-braille/192568.html ]
e|-----------0---------------0--------------0------------0--------------------|
B|-----------0---------------0--------------0------------0--------------------|
G|-----------0---------------0--------------0------------0--------------------|
D|-----------0---------------0--------------0------------0--------------------|
A|-----------7---------------7--------------5------------3--------------------|
E|-----------5---------------4--------------3------------1--------------------|


        Chorus: 2x

e|-----------0---------------0--------------0------------0--------------------|
B|-----------0---------------0--------------0------------0--------------------|
G|-----------0---------------0--------------0------------0--------------------|
D|-----------0---------------0--------------0------------0--------------------|
A|-----------10--------------7--------------9------------7--------------------|
E|-----------8---------------5--------------7------------7--------------------|


        Bridge: 2x (There is no singing in this part)

e|-----------0---------------0--------------0------------0--------------------|
B|-----------0---------------0--------------0------------0--------------------|
G|-----------0---------------0--------------0------------0--------------------|
D|-----------0---------------0--------------0------------0--------------------|
A|-----------7---------------7--------------5------------3--------------------|
E|-----------5---------------4--------------3------------1--------------------|


        Chorus: 3x (Last time you just strum the chord once.)

e|-----------0---------------0--------------0------------0--------------------|
B|-----------0---------------0--------------0------------0--------------------|
G|-----------0---------------0--------------0------------0--------------------|
D|-----------0---------------0--------------0------------0--------------------|
A|-----------10--------------7--------------9------------7--------------------|
E|-----------8---------------5--------------7------------7--------------------|
Related for Sheet Music tab