Song name
# A B C D E F G H I J K L M N O P Q R S T U V W X Y Z

Anchor And Braille - Sleep When We Die tab

Anchor & Braille: Sleep. When We Die.

Tuning: Standard


Chords:
Dm (xx0231)
Am7 (x02010)
G (355433)
F (133211)


Verses:
e|---------------------------------------------------------------------|
B|--6-----6------------------------------------------------------------|
G|-----7-----5---5-----5------4-----4-----4-----4----------------------|
D|-(0)---------------5-----5------5-----5-----5-----5------------------|
A --------------(0)----------------------------------------------------|
E|---------------------------(3)---------------------------------------|

e|--------------------------------------------------------------------|
B|--6-----6-----------------------------------------------------------|
G|-----7-----5---5-----5------4-----4-----4-----5-7-------------------|
D|-(0)---------------5-----5------5-----5-----5-----------------------|
A --------------(0)---------------------------------------------------|
E|---------------------------(3)--------------------------------------|

Chorus:
F-G-Am7-Am7
F-G-Am7-Am7
F-G-Am7-Am7
F-G-Am7-Am7


That's pretty much the tune.
Reference the chords that are up by svyn (along with the corrections by InspireADream)
Tap to rate this tab
# A B C D E F G H I J K L M N O P Q R S T U V W X Y Z