Song name
# A B C D E F G H I J K L M N O P Q R S T U V W X Y Z

Anchor And Braille - Blur tab

                                _____Anchor & Braille - "Blur"______

Tabbed by: Kevyn Montenegro
Email: theresnoiinkevyn@rocketmail.com
Tuning: Standard


Intro:

   C                               Am                               Dm

e|0--------0--------0--------0-----0--------0--------0--------0-----1--------1--------1--------1---|
B|1--------1--------1--------1-----1--------1--------1--------1-----3--------3--------3--------3---|
G|0--------0--------0--------0-----2--------2--------2--------2-----2-----2--------2--------2------|
D|2-----2--------2--------2--------2-----2--------2--------2-----2--0--0--------0--------0--------0|
A|3--3--------3--------3--------2--0--0--------0--------0------------------------------------------|
E|-------------------------------------------------------------------------------------------------|

   G

e|-3---------3--------3---------3----|
B|-3---------3--------3---------3----|
G|-0---------0--------0---------0----|  X2
D|-0---------------------------------|
A|-2-----2---------2---------2-------|
E|-3--3---------3---------3----------|

Verses:

C                                     Am

Take me down to where you think I belong

Am                                      Dm

You can't rescue me, you ain't that strong

Dm

You don't know no better,

G

 I'm not going to tell you any better.

Can you turn this pale water to wine?
If you can do that,
I think we'll be fine.
But you can't raise a sinner
And its not me but honesty that's dying.

Pre Chorus: Am - Em - F

Chorus:

Am

Blurring lines between love and sin

Em    F

Can't tell where you stop and where I begin

Am                                        Em    F

My body's sending questions to answers you can't give

            Dm

Or can you give?

With Verse Chords:

If you throw me a line I'll only drag you in
This isn't New York City and the ice is thin
Keep your eyes open up all night,
I'll be gone by the moment it strikes daylight.

Believe in fate but now you think they're lies.
I never meant to hurt a soul alive.
I'm still searching for what you can't give
And the further I wonder the less i know that is

With Chorus Chords:

Blurring lines between love and sin
Can't tell where you stop and where I begin
My body's sending promises that I cannot keep

Well we are blurring lines between love and sin can't tell
Where you stop or where I begin
My body's sending question to answers you can't give
Or can you give?

Solo:

Tremolo picked.
(Just slide from note to note and listen to the song
for note durations.)

    Am Dm          Am Dm Am/G*

e|--9--/10--9-7---/9--/8-7--|
B|--------------------------|
G|--------------------------|  X2  *The G is played only the second time
D|--------------------------|       through instead of Am.
A|--------------------------|
E|--------------------------|

With Chorus Chords:

Blurring lines between love and sin
Can't tell where you stop and where I begin
My body's sending promises that I cannot keep
                                                             X2
Well we are blurring lines between love and sin can't tell
Where you stop or where I begin
My body's sending question to answers you can't give
Or can you give?

Outro: Softly strum C - Am - Dm - G and a final C.

Lovely song,
I think I got it right.
Enjoy!
Tap to rate this tab
# A B C D E F G H I J K L M N O P Q R S T U V W X Y Z