Song name
# A B C D E F G H I J K L M N O P Q R S T U V W X Y Z

Anchoress - Sunbros tab

Band – Anchoress
Song – Sunbros
Link - http://www.youtube.com/watch?v=E_ID_ChEe9w
Album – Crime & Compass

/ = slide
h/p = hammer-on / pull-off
~ / x = sustain previous chord / Palm Mute
*/^ = Harmonic / Bend

This song is essentially non-stop riffing so I broke up many of the sections into parts
A and B. This way you can “master” parts and then string them together. It's also easier
to understand certain parts.

Intro / Riffer Madness (2x)
E] -----------------------------------------------------------|
B]------------------------------------------------------------|
G]------------------------------------------------------------|
D]------------------------------------------0h3h5-------------|
A]---------0h3h5h-0h3h5-----0h3h5-0h3h5-----------------------|
D]---0h3h5-------------0h3h5-----------0h3h5------------------|
  Play this 3x, then...

E]-----------------------------------|
B]-----------------------------------|
G]---8~~~~~~---4~~~~~----------------|
D]---6~~~~~----1~~~~~----------------|
A]---6~~~~~----1~~~~~----------------|
D]---6-~~~~~---1~~~~~~---------------|
  play this 1x.

=================================================================

Verse

E] --------------------------------------------------------------|
B]---------------------------------------------------------------|
G]---------------------------------------------------------------|
D]----7--7--7--XXX--7-7--------------7-7-77—---------------------|
A]----4--4--4--XXX--4-4—2p0h3p0h2p0--4-4-44----------------------|
D]----4--4--4--XXX--4-4--------------4-4-44----------------------|
  You play this at the beginning of each verse...

E]-----------------[]----------------|
B]-----------------[]----------------|
G]---11~~~/-14~~~--[]-----11~~~~~~~~-|
D -----------------[]----------------|
A]---9~~~/-12~~~---[]----—9~~~~~~~~~-|
D]-----------------[]----------------|
^End the 1st and 3rd     ^End 2nd and 4th

===============================================================

Transition (1x)
E] -----------------------------------------|
B] -----------------------------------------|
G] -----------------------------------------|
D] -----4-4-----2h0-----4XXX----------------|
A] -----4-4--2h4---2h0--4XXX----------------|
D] -----4-4-----------4-4XXX----------------|

Breakdown (4x) (It goes A/B/A/B*End thing.
E]  --------------------------------------|
B] ---------------------------------------|
G] ---------------------------------------|
D] ---4-xx-4----4-xx-4------2p0-----------|      (A)
A] ---4-xx-4----4-xx-4-2h4p0---2p0--------|
D] ---4-xx-4----4-xx-4--------------------|


E] -----------------------------------------|
B] -----------------------------------------|
G] --------------------2h4p2p0--------------|       (B)
D] 4xx4xx4xx4xx4--2h4p0-------2h0-----------|
A] 4xx4xx4xx4xx4—---------------------------|
D] 4xx4xx4xx4xx4----------------------------|

E] -------|
B] -------|
G] *5-----|                                 (End thing)
D] -------|
A] -------|
D] ---2^--|

=================================================================

Bridge 8x (a/b)2x -> (c)2x -> (a/b)2x -> (c-------|2x
E] -----------------------------------------------|
B] -----------------------------------------------|
G] ---------------2-2-----------------------------|
D] ---4-----------2-2-2h4p2p0---------------------|           (a)
A] ---4--2h4p2p0--0-0--------2h4p2p0--------------|
D] ---4-------------------------------------------|

E]-----------------------------|
B]-----------------------------|
G]----------0-0----------------|
D]-0--------0-0----------------|                     (b)
A]-0--------2-2—2--4--2--0-----|
D]-0-2h4p2p0-------------------|

E]  ------------------------------------------|
B] -------------------------------------------|
G] --- --------9~~~-----------11~~~--9/11~~---|      (c)
D] ---4xx-xxxx-7~~~--0xx-xxxx-9~~~~-----------|
A] ---4xx-xxxx-7~~~--0xx-xxxx-9~~~~--7/9~~----|
D] ---4xx-xxxx-7~~~--0xx-xxxx-9~~~~-----------|

===================================================================

Verse 4x (just this bit)

E] -----------------------------------|
B]------------------------------------|
G]------------------------------------|
D]----7--7--7--XXX---7-7--------------|
A]----4--4--4--XXX---4-4—2p0h3p0h2p0--|
D]----4--4--4--XXX---4-4--------------|

===================================================================

Breakdown (first 4x played the same as above)(change the ending - bend the 3rd fret on 
the D string.

Breakdown 2 (4x)C/D/C/D*End thing 2

E] -----------------------------------|
B] -----------------------2h3p2p0-----|
G] ------------------2h4p0--------2p0-|
D] --2-xx-2---2-xx-2------------------|                 (c)
A] --2-xx-2---2-xx-2------------------|
D] --2-xx-2---2-xx-2------------------|

E] --------------3p2p0---------------------------------|
B] -------------------3/5------------------------------|
G] ----------------------2p0---------------------------|                         (d)
D] --2xx2xx2xx2xx--------------------------------------|
A] --2xx2xx2xx2xx--------------------------------------|
D] --2xx2xx2xx2xx--------------------------------------|

E]-------|
B]-------|
G]-------|
D]--1^---|                                          (Ending thing)
A]--1^---|
D]--1^---|

===================================================================

Outro - Time signature changes to 3/4


E] ---------------------------------------------|
B] ---------------------------------------------|
G] ---------------------------------------------|
D] ---------------------------------------------|
A] ----------------------------------4^---------|
D] –0-0-00---0-0-00---0-0-00---0-0-00-----------|

E] ----------------------------------------------|
B] ----------------------------------------------|
G] ----------------------------------------------|
D] ----------------------------1/3---------------|
A] --------------------3h4---------3-------------|
D] –0-0-00---0-0-00-3-3---4-1-1------------------|
  play these two bars one time through each.

E] ---------------------[]--------|
B] ---------------------[]--------|
G] ---------------------[]--------|
D] ---------------------[]333-5---|
A] ------------------4^ []333-5---|
D] ---0-0-00---0-0-00---[]333-5---|
    play this 3x...........then this!

E]--0-----0-----0--0--------0---0----0--------------|
B]--13----13----13-13-------13--13---13----13^------|
G]--14----14----14-14-------14--14---14----14^------|
D]--0-----0-----0--0--------0---0----0x----11^------|
A]--0-----0-----0--0--------0---0----0x----11^------|
D]--0-----0-----0--0--------0---0----0x----11^------|
    Play this 4x every time

End with this on the 1st and 4th time

E] ------------------------|
B] ------------------------|
G] ------------------------|
D] --------------1/3-------|
A] ------3h4---------3-----|
D] –-3-3----4\1-1----------|

End with this on the 2nd and 3rd (listen for the weird timing)

E] ---------------|
B] ---------------|
G] ---------------|
D] ---333-5-------|
A] ---333-5-------|
D] ---333-5-------|

Keenan
Tap to rate this tab
# A B C D E F G H I J K L M N O P Q R S T U V W X Y Z